Oops, an error
Loading. Please wait.

Thru With You Bass Tab

194 views 1 this week
no commentswrite comment
1 2 3 4 5
please rate
add to favorites
launch autoscroll
font size
0
reset
guitar tuner
Autoscroll
slow
fast
+/-
esc
set tempo
stop
Help us to improve Ultimate-Guitar.com Take our survey!
×
Verse
G-----------|-----------|-----------|-----------|
D-----------|-----------|-----------|-----------|
A-7-7---6-6-|-7-7---6-6-|-7-7---6-6-|-7-7---6-6-|
E-----------|-----------|-----------|-----------|

G-----------|-----------|-----------|-----------|
D-----------|-----------|-----------|-----------|
A-7-7---6-6-|-7-7---6-6-|-7-7---6-6-|-7-7---6-6-|
E-----------|-----------|-----------|-----------|

Chorus
G---------------------------------|---------------------------------|
D---------------------------------|---------------------------------|
A-3-3-3-3-3-3-3-3-2-2-2-2-2-2-2-2-|-0-0-0-0-6-6-6-6-0-0-0-0-6-6-6-6-|
E---------------------------------|---------------------------------|

G---------------------------------|---------------------------------|
D---------------------------------|---------------------------------|
A-3-3-3-3-3-3-3-3-2-2-2-2-2-2-2-2-|-0-0-0-0-6-6-6-6-0-0-0-0-6-6-6-6-|
E---------------------------------|---------------------------------|

Bridge
G-----------------------------------------------------------------|
D-----------------------------------------------------------------|
A-7-7-7-7-7-7-7-7-3-3-3-3-3-3-3-3-4-4-4-4-4-4-4-4-5-5-5-5-5-5-5-5-|
E-----------------------------------------------------------------|

Behind Solo
G-----------|-----------|-----------|-----------|
D-----------|-----------|-----------|-----------|
A-7-7---6-6-|-7-7---6-6-|-7-7---6-6-|-7-7---6-6-|
E-----------|-----------|-----------|-----------|

the order is simple figure it out
Suggest correction
Give kudos to tab author, rate the tab!
1 2 3 4 5
comments
print report bad tab
guest
You may want to rate the tab now too:
select rating
Please do not post tabs as comments. Select "correction" instead!