Oops, an error
Loading. Please wait.

Enter The Metal World Tab

version 1
version 1

Whole song

Interactive

1,849 views 12 this week
no commentswrite comment
1 2 3 4 5
1 last vote to show rating
add to favorites
×
Save as Personal and add changes to this tab that will be seen only by you. Learn more ›
×
You can save this tab as Personal to edit and correct it or add notes. All changes will be seen only by you. Learn more »
save as personal
new!
launch autoscroll
font size
0
reset
how to read this tab
guitar tuner
Autoscroll
slow
fast
+/-
esc
set tempo
stop
Author
Difficulty
novice
Battle Beast - Enter the metal world
Tab Guitar

1.-------------------------------------|
2.-------------------------------------|
3.-------------------------------------|
4.-------------1-------------------3-1-|
5.---1-1-3-1-3---3-1-3---1-1-3-1-3-----|
6.-------------------------------------|  vibrato

1.-----------------------------------------|
2.-----------------------------------------|
3.-----------------------------------------|
4.-------------1---------------------------|
5.---1-1-3-1-3---3-1-3---1-1-3-1-3---6---8-|
6.-----------------------------------4---6-|

1.---------------------------------------|
2.---------------------------------------|
3.---------------------------------5---3-|
4.-------------1-------------------3---1-|
5.---1-1-3-1-3---3-1-3---1-1-3-1-3-------|
6.---------------------------------------|


1.------------------------------------------------|
2.------------------------------------------------|
3.------------------------------------------------|
4.-------------1-----------------------------5----|
5.---1-1-3-1-3---3-1-3---1-1-3-1-3---6---8---3----|
6.-----------------------------------4---6--------|


(0:36)
1.----------------------------------------------|
2.-/4-3------A----------------------------------|
3.------5-3-(5)---------------------------------|
4.----------------------------------------------|
5.----------------6-6-6---6-6-6---6-6-6---6-6-6-|
6.----------------4-4-4---4-4-4---4-4-4---4-4-4-|

1.-----------------------------------------------------|
2.-----------------------------------------------------|
3.---------------------------------------8h7----8h7----|
4.-----------------------------------5-------10-----10-|
5.---8-8-8---8-8-8---8-8-8---8-8-8---3-----------------|
6.---6-6-6---6-6-6---6-6-6---6-6-6---------------------|


1.----------------------------------------------------|
2.----------------------------------------------------|
3.-7-8-8h7----8-8h7-----------------------------------|
4.---------10-------10--------------------------------|
5.----------------------6-6-6---6-6-6---6-6-6---6-6-6-|
6.----------------------4-4-4---4-4-4---4-4-4---4-4-4-|

1.---------------------------------------------------|
2.---------------------------------------------------|
3.---------------------------------------------------|
4.---------------------------------------------------|
5.---8-8-8---8-8-8---8-8-8---8-8-8---6-6-6---6-6-6---|
6.---6-6-6---6-6-6---6-6-6---6-6-6---4-4-4---4-4-4---|

1.-----------------------------------|
2.-----------------------------------|
3.-----------------------------------|
4.-----------------------------------|
5.---6-6-6---6-6-6---8-8-8---8-8-8-8-|
6.---4-4-4---4-4-4---6-6-6---6-6-6-6-|

(0:55)
1.---------------------------------------------|
2.---------------------------------------------|
3.---------------------------------------------|
4.----------------------------8----------------|
5.---10---10---10----8---10---6---10---10---10-|
6.----8----8----8----6----8--------8----8----8-|

1.----------------------------------|
2.----------------------------------|
3.----------------------------------|
4.---------------------------10---8-|
5.---10---10---10---8---10----8---6-|
6.----8----8----8---6----8----------|

1.---------------------------------------------|
2.---------------------------------------------|
3.---------------------------------------------|
4.----------------------------8----------------|
5.---10---10---10----8---10---6---10---10---10-|
6.----8----8----8----6----8--------8----8----8-|

1.---------------------------------------------------------|
2.---------------------------------------------------------|
3.---------------------------------------------------------|
4.---------------------------------------------------------|
5.---10---10---10---8---10---6---8-------------------------|
6.----8----8----8---6----8---4---6    repetimos desde 0:55-|

(1:20)                    (1:44)
1.-------------------   1.-------------------------------|
2.---4h3---4h3-------   2.----16-18-20-18-16----------16-|
3.-------------5-3-5-   3.-19----------------19-17-19----|
4.-------------------   4.-------------------------------|
5.-------------------   5.-------------------------------|
6.-------------------   6.-------------------------------|

1.-------------------------|
2.-18-20-18-16-------------|
3.-------------19-17-15-17-|
4.-------------------------|
5.-------------------------|
6.-------------------------|

(2:02)Solo
1.---------------------------------------------------|
2.-------------------------6----------------11-13----|
3.-7(8)-5---7(8)-5-----------8-5-10-8-------------12-|
4.--------8--------8-8/10-------------10-8-----------|
5.---------------------------------------------------|
6.---------------------------------------------------|


1.------------------------------------------------------|
2.------------------------------------------------------|
3.-----------------------/8-8h7-------------------------|
4.-13-12-10-12-10----10---------10-8-10-6-8-5-6-3-5-6-5-|
5.----------------13------------------------------------|
6.------------------------------------------------------|

1.----------8---------------8---------------8------|
2.--------8---11h8--------8---11h8--------8---11h8-|
3.-10(12)-----------10(12)---------10(12)----------|
4.-------------------------------------------------|
5.-------------------------------------------------|
6.-------------------------------------------------|


1.----------8---------------8h11-----------8------|
2.--------8---11h8--------8--------------8---11h8-|
3.-10(12)----------10(12)---------10(12)----------|
4.------------------------------------------------|
5.------------------------------------------------|
6.------------------------------------------------|

1.---------8---------------15h13h11----------------------|
2.-------8---11h8---11(13)----------15-13----------------|
3.-10(12)---------------------------------15h13h12-------|
4.-------------------------------------------------15-13-|
5.-------------------------------------------------------|
6.-------------------------------------------------------|

1.--------------------------------------------------13-|
2.-----------------------------------------------13----|
3.-12h10h8--------10h8h7------10h8h7----------12-------|
4.---------12-10---------10-8---------10-8-10----------|
5.-----------------------------------------------------|
6.-----------------------------------------------------|


1.------------------------------16----------------------|
2.-15-16-15-13------16-18-20-18----20-18-16-------16-18-|
3.---------------19-------------------------17-19-------|
4.------------------------------------------------------|
5.------------------------------------------------------|
6.------------------------------------------------------|


1.-------16--------------|
2.-20-18----20-18-16-----|
3.--------------------17-|
4.-----------------------|
5.-----------------------|
6.-----------------------| . . .
Suggest correction
Give kudos to tab author, rate the tab!
1 2 3 4 5
comments
print report bad tab
guest
You may want to rate the tab now too:
select rating
Wanna post a correction for this tab? Suggest correction