Oops, an error
Loading. Please wait.

Bela Lugosis Dead Tab

version 1
version 1

Whole song

Interactive

11,786 views 105 this week
1 commentread comment
1 2 3 4 5
accurate
x 5
add to favorites
launch autoscroll
font size
0
reset
how to read this tab
guitar tuner
Tab Pro tools
  • play this tab
  • loop segment
  • change instrument
  • show fretboard
  • metronome
Autoscroll
slow
fast
+/-
esc
set tempo
stop
Contributor
Bauhaus - Bela Lugosi's Dead
by: Neil R. Rose

Okay, so the the tab itself is a bit messy. I made this for a single guitar cover. SCRP 
= Pick scrape. PALM SCRAPE should be self explanatory. Listen to the song while reading 
it and you'll get it.


e|------------------------------------------------------------|---------------|
B|---------------------------------------------------------   |---------------|
G|--------------------------------------------------------  X2|---------------|  X2
D|---------------------------------------------------------   |---------------|
A|------------------------------------------------------------|---------------|
E|-10~----10~----10~--9~--7~---10~--9~--7~---10~--3~--7~-SCRP-|-10~--9~--7~---|

e|-----------S---------S---------S---------S--|
B|-------P---C------P--C------P--C------P--C--|
G|-------A---R------A--R------A--R------A--R--|   X2
D|-------L---A------L--A------L--A------L--A--|
A|-------M---P------M--P------M--P------M--P--|
E|---10---10-E---9---9-E---7---7-E---7---7-E--|

e|-----------------------------------------------------------|-------------|
B|-----------------------------------------------------------|--4-4--4-4~--|
G|--7H8-7H8-7H8-7H8-6H7-6H7-6H7-6H7-4H5-4H5-4H5-4H5--  x2  --|--4-4--4-4~--|
D|-----------------------------------------------------------|--4-4--4-4~--|
A|-----------------------------------------------------------|-------------|
E|--10--------------9---------------7---------------7--------|-------------|

e|---------------------------------------|
B|---------------------------------------|
G|---------------------------------------|  x2
D|---------------------------------------|
A|---------------------------------------|
E|--10-10-10-10-9-9-9-9-7-7-7-7-7-7-7-7--|

VERSE
e|---------------------------------------------------|
B|---------------------------------------------------|
G|--777-7-7-7--6666-6-6-6--5555-5-5-5---5555-5-5-5---|
D|--777-7-7-7--6666-6-6-6--5555-5-5-5---5555-5-5-5---|
B|--555-5-5-5--4444-4-4-4--3333-3-3-3---3333-3-5-3---|
E|---------------------------------------------------|

e|------------------------------|-555-5-5-666-6-6-7-7----------|
B|----------------------P-X-16--|-555-5-5-666-6-6-7-7--P-x-16--|
G|--777-7-7--6666-6-6---A-X-16--|-666-6-6-777-7-7-8-8--A-x-16--|
D|--777-7-7--6666-6-6---L-X-16--|-777-7-7-888-8-8-9-9--L-x-16--|
B|--555-5-5--4444-4-4---M-X-16--|-777-7-7-888-8-8-9-9--M-x-16--|
E|------------------------------|-555-5-5-666-6-6-7-7----------|

e|---------------------------------------------------|
B|---------------------------------------------------|
G|--777-7-7-7--6666-6-6-6--5555-5-5-5---5555-5-5-5---|
D|--777-7-7-7--6666-6-6-6--5555-5-5-5---5555-5-5-5---|
B|--555-5-5-5--4444-4-4-4--3333-3-3-3---3333-3-5-3---|
E|---------------------------------------------------|

VERSE 2
e|---------10-10-10---------9--9--9----------7--7--7----------7--7--7---|
B|---------10-10-10---------9--9--9----------7--7--7----------7--7--7---|
G|---------11-11-11---1010--10-10-10---------9--9--9----------9--9--9---|
D|--1212---12-12-12---1111--11-11-11---1010--10-10-10---1010--10-10-10--|
A|--1212---12-12-12---1111--11-11-11---1010--10-10-10---1010--10-10-10--|
E|--101010-10-10-10---9-9-9--9--9--9---7-7-7-7--7--7---7-7-7--7--7--7---|

e|--555-5-5-666-6-6-7-7---------|
B|--555-5-5-666-6-6-7-7--P-x-16-|
G|--666-6-6-777-7-7-8-8--A-x-16-|  X2
D|--777-7-7-888-8-8-9-9--L-x-16-|
B|--777-7-7-888-8-8-9-9--M-x-16-|
E|--555-5-5-666-6-6-7-7---------|

e|--------D------D------D------D--|
B|------P-E----P-E----P-E----P-E--|
G|------A-L----A-L----A-L----A-L--|
D|------L-A----L-A----L-A----L-A--|
A|------M-Y----M-Y----M-Y----M-Y--|
E|---10------9------7------7------|

DELAYED PALM and SCRAPING VERSE D C#M B

e|---------------|---------------------------------|---------------|
B|---------------|---------------------------------|---------------|
G|---------------|---------------------------------|---------------|
D|---------------|---------------------------------|---------------|
A|---------------|---------------------------------|---------------|
E|--10~--9~--7~--|--10~----3~-----10~----3~----7~--|--10~--9~--7~--|

e|-----------------------------------------------------------|-------------|
B|-----------------------------------------------------------|--4-4--4-4~--|
G|--7H8-7H8-7H8-7H8-6H7-6H7-6H7-6H7-4H5-4H5-4H5-4H5--  x4  --|--4-4--4-4~--|
D|-----------------------------------------------------------|--4-4--4-4~--|
A|-----------------------------------------------------------|-------------|
E|--10--------------9---------------7---------------7--------|-------------|

VERSE + VERSE 2

PALM MUTING and DELAY


Neil R. Rose
comments
print report bad tab
1 comment total.
0 reply
Neil R. Rose wrote on February 11 2014, 03:42 am

Bauhaus - Bela Lugosi's Dead
by: Neil R. Rose

Okay, so the the tab itself is a bit messy. I made this for a single guitar cover. SCRP
= Pick scrape. PALM SCRAPE should be self explanatory. Listen to the song while reading
it and you'll get it.

e|------------------------------------------------------------|---------------|
B|--------------------------------------------------------- |---------------|
G|-------------------------------------------------------- X2|---------------| X2
D|--------------------------------------------------------- |---------------|
A|------------------------------------------------------------|---------------|
E|-10~----10~----10~--9~--7~---10~--9~--7~---10~--3~--7~-SCRP-|-10~--9~--7~---|

e|-----------S---------S---------S---------S--|
B|-------P---C------P--C------P--C------P--C--|
G|-------A---R------A--R------A--R------A--R--| X2
D|-------L---A------L--A------L--A------L--A--|
A|-------M---P------M--P------M--P------M--P--|
E|---10---10-E---9---9-E---7---7-E---7---7-E--|

e|--0-0-0-0-0-0-0-0--0-0-0-0-0-0-0-0--0-0-0-0-0-0-0-0--0-0-0-|-------------|
B|--5-5-5-5-5-5-5-5--5-5-5-5-5-5-5-5--5-5-5-5-5-5-5-5--5-5-5-|--4-4--4-4~--|
G|-----------------------------------------------------------|--4-4--4-4~--|
D|-----------------------------------------------------------|--4-4--4-4~--|
A|-----------------------------------------------------------|-------------|
E|--10--------------9---------------7---------------7--------|-------------|

e|---------------------------------------|
B|---------------------------------------|
G|---------------------------------------| x2
D|---------------------------------------|
A|---------------------------------------|
E|--10-10-10-10-9-9-9-9-7-7-7-7-7-7-7-7--|

VERSE
e|---------------------------------------------------|
B|---------------------------------------------------|
G|--777-7-7-7--6666-6-6-6--4444-4-4-4---4444-4-4-4---|
D|--777-7-7-7--6666-6-6-6--4444-4-4-4---4444-4-4-4---|
B|--555-5-5-5--4444-4-4-4--2222-2-2-2---2222-2-5-2---|
E|---------------------------------------------------|

e|------------------------------|-555-5-5-666-6-6-7-7----------|
B|----------------------P-X-16--|-555-5-5-666-6-6-7-7--P-x-16--|
G|--777-7-7--6666-6-6---A-X-16--|-666-6-6-777-7-7-8-8--A-x-16--|
D|--777-7-7--6666-6-6---L-X-16--|-777-7-7-888-8-8-9-9--L-x-16--|
B|--555-5-5--4444-4-4---M-X-16--|-777-7-7-888-8-8-9-9--M-x-16--|
E|------------------------------|-555-5-5-666-6-6-7-7----------|

e|---------------------------------------------------|
B|---------------------------------------------------|
G|--777-7-7-7--6666-6-6-6--4444-4-4-4---4444-4-4-4---|
D|--777-7-7-7--6666-6-6-6--4444-4-4-4---4444-4-4-4---|
B|--555-5-5-5--4444-4-4-4--2222-2-2-2---2222-2-5-2---|
E|---------------------------------------------------|

VERSE 2
e|---------10-10-10---------9--9--9----------7--7--7----------7--7--7---|
B|---------10-10-10---------9--9--9----------7--7--7----------7--7--7---|
G|---------11-11-11---1010--10-10-10---------9--9--9----------9--9--9---|
D|--1212---12-12-12---1111--11-11-11---1010--10-10-10---1010--10-10-10--|
A|--1212---12-12-12---1111--11-11-11---1010--10-10-10---1010--10-10-10--|
E|--101010-10-10-10---9-9-9--9--9--9---7-7-7-7--7--7---7-7-7--7--7--7---|

e|--555-5-5-666-6-6-7-7---------|
B|--555-5-5-666-6-6-7-7--P-x-16-|
G|--666-6-6-777-7-7-8-8--A-x-16-| X2
D|--777-7-7-888-8-8-9-9--L-x-16-|
B|--777-7-7-888-8-8-9-9--M-x-16-|
E|--555-5-5-666-6-6-7-7---------|

e|--------D------D------D------D--|
B|------P-E----P-E----P-E----P-E--|
G|------A-L----A-L----A-L----A-L--|
D|------L-A----L-A----L-A----L-A--|
A|------M-Y----M-Y----M-Y----M-Y--|
E|---10------9------7------7------|

DELAYED PALM and SCRAPING VERSE D C#M B

e|---------------|---------------------------------|---------------|
B|---------------|---------------------------------|---------------|
G|---------------|---------------------------------|---------------|
D|---------------|---------------------------------|---------------|
A|---------------|---------------------------------|---------------|
E|--10~--9~--7~--|--10~----3~-----10~----3~----7~--|--10~--9~--7~--|

e|--0-0-0-0-0-0-0-0--0-0-0-0-0-0-0-0--0-0-0-0-0-0-0-0--0-0-0-|-------------|
B|--5-5-5-5-5-5-5-5--5-5-5-5-5-5-5-5--5-5-5-5-5-5-5-5--5-5-5-|--4-4--4-4~--|
G|-----------------------------------------------------------|--4-4--4-4~--|
D|-----------------------------------------------------------|--4-4--4-4~--|
A|-----------------------------------------------------------|-------------|
E|--10--------------9---------------7---------------7--------|-------------|

VERSE + VERSE 2

PALM MUTING and DELAY

Neil R. Rose

I want to post or [tab]
guest
You may want to rate the tab now too:
select rating
Please do not post tabs as comments. Select "correction" instead!