Oops, an error
Loading. Please wait.

Double Dare Bass

238 views 9 this week
no commentswrite comment
1 2 3 4 5
2 more votes to show rating
add to favorites
launch autoscroll
font size
0
reset
guitar tuner
×
Best way to learn
"Double Dare"
Autoscroll
slow
fast
+/-
esc
set tempo
stop
-------------------------------------------------------------------------------
                             DOUBLE DARE - Bauhaus
-------------------------------------------------------------------------------
Tabbed by: Me
E-mail: h.abualtin@yahoo.com

Tuning: Standard

Played with a lot of fuzz/distortion.

G|---------------------------------------------------------------------------|
D|---4/5-5~-------------4/5-5~----4/5-4/5-555-4/5-4/5-555-4/5-4/5-555--------| 
A|---------------------------------------------------------------------------|  
E|---------------------------------------------------------------------------|  

G|------------------------|
D|-----33--------33-------|  Repeat until 1:40 into the song
A|------------------------|
E|---00---0----00--0------|

G|----------------------------------------------------------|
D|-----33/5\------------------------------------------------|
A|---------------3333-2222-1111-----------------------------|
E|---00-------------------------3333--00-11-0---00-11-0-----|

G|------------------------|
D|-----33--------33-------|  Repeat until 2:23 into the song
A|------------------------|
E|---00---0----00--0------|

G|---------------------------------------------|
D|---------------------------------------------|
A|---3333-2222-1111------3333-2222-1111--------| (I can't tell if these parts are played like this or all
E|------------------3333----------------3333---|  on the E string...to me it sounds better all on E)

G|-----------------------|
D|-----------------------|  Repeat until about 2:54 into the song
A|-----------------------|
E|---00-11-0--00-11-0----|

G|-----------------------|
D|-----33-----33---------|  Repeat until 3:17 into the song
A|-----------------------|
E|---00--0--00--0--------|

G|--------------------------|
D|--------------------------|  Play this three times total
A|---3333-2222-1111---------|
E|------------------3333----|

G|-------------|
D|-----33------|  Repeat through to the end of the song (very end slows a little, just follow along)
A|-------------|
E|---00--0-----|

G|---------------------------------------------------------------------------|
D|-------------------------------4/5-4/5~-4/5-4/5~-4/5-4/5~-4/5-4/5~-5\4~----| (slides are slower than in intro)
A|---------------------------------------------------------------------------|
E|--00-11-0--00-11-0--00-11-0------------------------------------------------|

| /  slide up
| \  slide down
| ~  sustain note
===============================================================================
Suggest correction
Give kudos to tab author, rate the tab!
1 2 3 4 5
comments
print report bad tab
guest
You may want to rate the tab now too:
select rating
Wanna post a correction for this tab? Suggest correction