Oops, an error
Loading. Please wait.

Mask Outro Only Tab

by Bauhaus
1,558 views 1 this week
1 commentread comment
1 2 3 4 5
2 more votes to show rating
add to favorites
×
Save as Personal and add changes to this tab that will be seen only by you. Learn more ›
save as personal
new!
launch autoscroll
font size
0
reset
how to read this tab
guitar tuner
Autoscroll
slow
fast
+/-
esc
set tempo
stop
My first tab: :-)

E-8-8-----8-8----8-8-7-7---7-7-7-7---|
B-----5-5-----5-5--------------------|
G------------------------------------|
D------------------------------------|
A------------------------------------|
E------------------------------------|

This riff starts around the 2.40 mark, and continues through to the end of the song. 
are a few variations towards the end, but this is the basic idea. Comments welcome.
Suggest correction
Give kudos to tab author, rate the tab!
1 2 3 4 5
comments
print report bad tab
1 comment total.
0 reply
rots940902 20 Jun 05, 2017 06:08 PM

E-8-8-----8-8----8-7-7-----12-12---12-12-|
B-----5-5-----5-5------------------------|
G--------------------------------9-------|
D----------------------------------------|
A----------------------------------------|
E----------------------------------------|

guest
You may want to rate the tab now too:
select rating
Wanna post a correction for this tab? Suggest correction