Oops, an error
Loading. Please wait.

Rose Garden Funeral Of Sores Bass Tab

version 2
version 2

Whole song

873 views 1 this week
1 commentread comment
1 2 3 4 5
1 last vote to show rating
add to favorites
launch autoscroll
font size
0
reset
guitar tuner
Autoscroll
slow
fast
+/-
esc
set tempo
stop
Help us to improve Ultimate-Guitar.com Take our survey!
×
Difficulty
novice
Bauhaus 
Rose Garden Funeral of sores


The other tab I saw sounded a little bit off.
G|-------------------------------|
D|--------5-5--3-3---------------|
A|------------------3h4h5--------|
E|--5-5--------------------------|

Repeat For whole  song

| /  slide up
| \  slide down
| h  hammer-on
| p  pull-off
| ~  vibrato
| +  harmonic
| x  Mute note
===============================================================================
Suggest correction
Give kudos to tab author, rate the tab!
1 2 3 4 5
comments
print report bad tab
1 comment total.
0 reply
victoriaroskams 10 Jul 15, 2014 03:21 PM

I'm sure it was just a typo but it should be like this:

G|-------------------------------|
D|--------5-5--3-3---------------|
A|------------------3h4h5--------|
E|--3-3--------------------------|

guest
You may want to rate the tab now too:
select rating
Wanna post a correction for this tab? Suggest correction