Oops, an error
Loading. Please wait.

Shes In Parties Bass Tab

10,957 views 30 this week
1 commentread comment
1 2 3 4 5
accurate
x 8
add to favorites
launch autoscroll
font size
0
reset
guitar tuner
Tab Pro tools
  • play this tab
  • loop segment
  • change instrument
  • show fretboard
  • metronome
×
Best way to learn
"Shes In Parties"
Autoscroll
slow
fast
+/-
esc
set tempo
stop
Contributor
Difficulty
intermediate
Bauhaus
She's in Parties
Bassist: David J

 orginally Tabbed By Stefano     dentiasciabola@hotmail.com


G|---10-10-10-10-108-|---6-6-6/8-8------------|
D|-8------------------|-4-----------6/8-| X 3-|
A|--------------------|-----------------------|
E|--------------------|-----------------------|

G|---10-10-10-10-108-|---6---7---8---9--------|
D|-8------------------|-4---5---6---7---| X 1-|
A|--------------------|-----------------------|
E|--------------------|-----------------------|

G|---10-10-10-10-108-|---6-6-6/8-8------------|
D|-8------------------|-4-----------6/8-| X 9-|
A|--------------------|-----------------------|
E|--------------------|-----------------------|

G|---10-10-10-10-108-|-8-6---10/-8-6-----------|
D|-8------------------|------8---------8-| X 1-|
A|--------------------|------------------------|
E|--------------------|------------------------|

G|---10-10-10-10-108-|---6-6-6/8-8------------|
D|-8------------------|-4-----------6/8-| X 3-|
A|--------------------|-----------------------|
E|--------------------|-----------------------|

G|---10-10-10-10-108-|----------------|
D|-8------------------|-4-4-6-6-| X 1-|
A|--------------------|---------------|
E|--------------------|---------------|


G|---10-10-10-10-108-|---6-6-6/8-8------------|
D|-8------------------|-4-----------6/8-| X 4-|
A|--------------------|-----------------------|
E|--------------------|-----------------------|

Chorus:

G|---------|---------|---------|---------|
D|---------|---------|---------|---------| X 2
A|-8-8-8-8-|-8-8-8-8-|-6-6-6-6-|-4-4-4-4-|
E|---------|---------|---------|---------|

G|---10-10-10-10-108-|---6-6-6/8-8------------|
D|-8------------------|-4-----------6/8-| X 3-|
A|--------------------|-----------------------|
E|--------------------|-----------------------|

G|---10-10-10-10-108-|-8-6---10-8-6------------|
D|-8------------------|-----8--------6/8-| X 1-|
A|--------------------|------------------------|
E|--------------------|------------------------|

G|-------------|-------|
D|-------------|-------| X 4
A|---4-6/8-6-4-|-6-----|
E|-6-----------|---4/6-|

REST


G|---10-10-10-10-108-|---6-6-6/8-8------------|
D|-8------------------|-4-----------6/8-| X 4-|
A|--------------------|-----------------------|
E|--------------------|-----------------------|

G|---------|---------|---------|---------|
D|---------|---------|---------|---------| X 2
A|-8-8-8-8-|-8-8-8-8-|-6-6-6-6-|-4-4-4-4-|
E|---------|---------|---------|---------|

G|---10-10-10-10-108-|---6-6-6/8-8------------|
D|-8------------------|-4-----------6/8-| X 8-|
A|--------------------|-----------------------|
E|--------------------|-----------------------|

G|-------------|-------|
D|-------------|-------| X 4
A|---4-6/8-6-4-|-6-----|
E|-6-----------|---4/6-|

Fade out
comments
print report bad tab
1 comment total.
0 reply
Yulia1307 wrote on January 16 2014, 04:47 pm

This tabs are incorrect.

I want to post or [tab]
guest
You may want to rate the tab now too:
select rating
Please do not post tabs as comments. Select "correction" instead!