Oops, an error
Loading. Please wait.

Too Much 21St Century Bass Tab

365 views 9 this week
no commentswrite comment
1 2 3 4 5
please rate
add to favorites
launch autoscroll
font size
0
reset
guitar tuner
Autoscroll
slow
fast
+/-
esc
set tempo
stop
Help us to improve Ultimate-Guitar.com Take our survey!
×
Author
Difficulty
novice
-------------------------------------------------------------------------
                       Too Much 21st Century - Bauhaus
-------------------------------------------------------------------------
Tabbed by: Myself
Email: cpochie92@gmail.com

Tuning: Standard

--Main Riff--
           
  "We all want..."     "Too much luck..."      
e|-------------------|-------------------|
B|-------------------|-------------------|
G|-----7-------7--9--|------------5------|
D|--------7h9--------|--------5h7---7----|
A|--7----------------|--5--5-------------|
E|-------------------|-------------------|

--First Fill--

e|-------------------|
B|-------------------|
G|--7h9--7h9--7------|
D|---------------9---|
A|-------------------|
E|-------------------|

--Second Fill--

e|-------------------------------|
B|-------------------------------|
G|--7h9--7/9--7h9--7/9-----------|
D|---------------------7h9--7h9--|
A|-------------------------------|
E|-------------------------------|
Suggest correction new What's this?
You can suggest a correction to this tab. Community and Mods will review your correction and vote to approve or reject it.
comments
We did not receive enough feedback on this tab! Please rate:
print report bad tab
1 2 3 4 5
guest
You may want to rate the tab now too:
select rating
Please do not post tabs as comments. Select "correction" instead!