Oops, an error
Loading. Please wait.

Charlie Fa Surf Chords

version 4
version 4

Whole song

Interactive

7 views 7 this week
no commentswrite comment
1 2 3 4 5
2 more votes to show rating
add to favorites
launch autoscroll
font size
0
reset
transpose
0
reset
simplify chords
display chords
guitar tuner
Autoscroll
slow
fast
+/-
esc
set tempo
stop
Help us to improve Ultimate-Guitar.com Take our survey!
×
Author
Difficulty
Capo
intermediate
3rd fret
[Intro]
e|-6-------6---------------8---6-|-8---------8---------------------------|
B|-----8-------8-------8---------|------9---------9---------9----11----9-|
G|---8---8---8---8---8---8---8---|---10----10--10---10---10---10----10---|
D|-------------------------------|---------------------------------------|
A|-6---------------6-------6-----|-8-------------------8------------8----|
E|-------------------------------|---------------------------------------|

e|-8---------8---------10---------8---------|-------------6-|
B|------9---------9----------9---------9----|-8-9---8-9-8---|
G|---10---10---10---10----10---10---10---10-|-----8---------|
D|-6-------------------6--------------------|---------------|
A|------------------------------------------|-6-------------|
E|------------------------------------------|---------------|

C Dm G C

[Verse]
C
Vorrei morire a questa età
Dm                              G
vorrei star fermo mentre il mondo va
           C
ho quindici anni
C
Programmo la mia drum-machine
Dm                            G
e suono la chitarra elettrica
C
vi spacco il culo
F         G
è questione d’equilibrio
F        G
non è mica facile

[Chorus]
C                      G   
Charlie fa surf, quanta roba si fa
Dm
MDMA
Am           G
ma ha le mani chiodate se
C                      G   
Charlie fa skate, non abbiate pietà
Dm              Am            Am7
crocifiggetelo, sfiguratelo in volto
C             D7
con la mazza da golf
C   G    Dm    G
alleluja alleluja

[Instrumental]
C Dm G C

[Verse]
C
Mi piace il metal, l’r'n’b
Dm                   G
ho scaricato tonnellate di
       C
filmati porno
C
e vado in chiesa e faccio sport
Dm                  G
prendo pastiglie che contengono
C
paroxetina
F        G
Io non voglio crescere
F        G
andate a farvi fottere

[Chorus]
C                      G
Charlie fa surf, quanta roba si fa
Dm
MDMA
Am        G
ma le mani chiodate da
C                            G 
un mondo di grandi e di preti fa skate
      Dm                 
non abbiate pietà
    Am        Am7
una mazza da baseball
C             D7
quanto bene gli fa
C    G   Dm   G
alleluja alleluja

[Instrumental]
C Dm G C
Suggest correction
Give kudos to tab author, rate the tab!
1 2 3 4 5
comments
print report bad tab
guest
You may want to rate the tab now too:
select rating
Wanna post a correction for this tab? Suggest correction