Oops, an error
Loading. Please wait.

All Of Me Loves All Of You Bass Tab

22 views 1 this week
no commentswrite comment
1 2 3 4 5
2 more votes to show rating
add to favorites
launch autoscroll
font size
0
reset
guitar tuner
Autoscroll
slow
fast
+/-
esc
set tempo
stop
Help us to improve Ultimate-Guitar.com Take our survey!
×
Author
Tuning
E A D G B E
--------------------------------------------------------------------------
                            Artist - Bay City Rollers
                          ****************************
                        Song - All Of Me Love All Of You
                       **********************************
                              Tabbed By - Ayreon77
                             **********************
--------------------------------------------------------------------------
Tuning = Standard             


INTRO
******
G|-------------------------|-------------------|
D|-------------------------|--s----------------|
A|-7~~~-5~~~~--------------|-5\7--7--7-7-5-----|
E|-------------5~~~~-5~~~~-|---------------8-7-|


G|-----------------------------------|-----------------------------------|
D|-----------------------------------|-----------------------------------|
A|-----------------------------------|-----------------------------------|
E|-5--5-5--5-5--5-5--5-5--5-5--5-5-3-|-5--5-5--5-5--5-5--5-5--5-5--5-5-3-|


---------------------------------
00:22
VERSE 1
********
G|-----------------------------------|-----------------------------------|
D|-----------------------------------|-----------------------------------|
A|-----------------------------------|---------------------------------3-|
E|-5--5-5--5-5--5-5--5-5--5-5--5-5-3-|-5--5-5--5-5--5-5--5-5--5-5--5-5---|


G|-----------------------------------|-----------------------------------|
D|-----------------------------------|-----------------------------------|
A|-5--5-5--5-5--5-5--5-5--5-5--5-5---|-----------------------------------|
E|---------------------------------3-|-5--5-5--5-5--5-5--5-5--5-5--5-5-3-|

00:37
G|-----------------------------------|--------------------------------------|
D|-----------------------------------|--------------------------------------|
A|-----------------------------------|--------------------------------------|
E|-5--5-5--5-5--5-5--5-5--5-5--5-5-3-|-5--5-5--5-5--5-5--5-5--5-5--5-5--5-5-|


G|------------------|------------------|------------------|--------------|
D|------------------|------------------|------------------|--------------|
A|-3--3-3--3-3--3-3-|-5--5-5--5-5--5-5-|-7--7-7--7-7--7-7-|-7-7--7-5-----|
E|------------------|------------------|------------------|----------8-7-|


---------------------------------
00:51
CHORUS
*******
G|-----------------------------------------|-----------------------------------------|
D|-----------------------------------------|-----------------------------------------|
A|-----------------------------------------|-5--5-5--5-5--5-5--5-5--5-5--5-5--5-5--5-|
E|-5--5-5--5-5--5-5--5-5--5-5--5-5--5-5--5-|-----------------------------------------|


G|-----------------------------------------|------------------|---------------------|
D|-----------------------------------------|------------------|--s------------------|
A|-7--7-7--7-7--7-7--7-7--7-7--7-7--7-7--7-|------------------|-5\7-7--5-5----------|
E|-----------------------------------------|-5--5-5--5-5--5-5-|------------8-8--7-7-|


G|-----------------------------------------|-----------------------------------------|
D|-----------------------------------------|-----------------------------------------|
A|-----------------------------------------|-5--5-5--5-5--5-5--5-5--5-5--5-5--5-5--5-|
E|-5--5-5--5-5--5-5--5-5--5-5--5-5--5-5--5-|-----------------------------------------|


G|-----------------------------------------|---------------------------|
D|-----------------------------------------|---------------------------|
A|-7--7-7--7-7--7-7--7-7--7-7--7-7--7-7--7-|---------------------------|
E|-----------------------------------------|-5--5-5--3-5-5-5-5-5-5-5-5-|


---------------------------------
01:19
BREAK
******
G|---------------------------------------|-----------------------------------|
D|---------------------------------------|-----------------------------------|
A|---------------------------------------|-----------------------------------|
E|-3-4-5--5-5--5-5--5-5--5-5--5-5--5-5-3-|-5--5-5--5-5--5-5--5-5--5-5--5-5-3-|


---------------------------------
01:27
VERSE 2
********
G|-----------------------------------|-----------------------------------|
D|-----------------------------------|-----------------------------------|
A|-----------------------------------|---------------------------------3-|
E|-5--5-5--5-5--5-5--5-5--5-5--5-5-3-|-5--5-5--5-5--5-5--5-5--5-5--5-5---|


G|-----------------------------------|-----------------------------------|
D|-----------------------------------|-----------------------------------|
A|-5--5-5--5-5--5-5--5-5--5-5--5-5---|-----------------------------------|
E|---------------------------------3-|-5--5-5--5-5--5-5--5-5--5-5--5-5-3-|

01:41
G|-----------------------------------|--------------------------------------|
D|-----------------------------------|--------------------------------------|
A|-----------------------------------|--------------------------------------|
E|-5--5-5--5-5--5-5--5-5--5-5--5-5-3-|-5--5-5--5-5--5-5--5-5--5-5--5-5--5-5-|


G|------------------|------------------|------------------|--------------|
D|------------------|------------------|------------------|--------------|
A|-3--3-3--3-3--3-3-|-5--5-5--5-5--5-5-|-7--7-7--7-7--7-7-|-7-7--7-5-----|
E|------------------|------------------|------------------|----------8-7-|


---------------------------------
01:56
CHORUS
*******
G|-----------------------------------------|-----------------------------------------|
D|-----------------------------------------|-----------------------------------------|
A|-----------------------------------------|-5--5-5--5-5--5-5--5-5--5-5--5-5--5-5--5-|
E|-5--5-5--5-5--5-5--5-5--5-5--5-5--5-5--5-|-----------------------------------------|


G|-----------------------------------------|------------------|---------------------|
D|-----------------------------------------|------------------|--s------------------|
A|-7--7-7--7-7--7-7--7-7--7-7--7-7--7-7--7-|------------------|-5\7-7--5-5----------|
E|-----------------------------------------|-5--5-5--5-5--5-5-|------------8-8--7-7-|


G|-----------------------------------------|-----------------------------------------|
D|-----------------------------------------|-----------------------------------------|
A|-----------------------------------------|-5--5-5--5-5--5-5--5-5--5-5--5-5--5-5--5-|
E|-5--5-5--5-5--5-5--5-5--5-5--5-5--5-5--5-|-----------------------------------------|


G|-----------------------------------------|---------------------------|
D|-----------------------------------------|---------------------------|
A|-7--7-7--7-7--7-7--7-7--7-7--7-7--7-7--7-|---------------------------|
E|-----------------------------------------|-5--5-5--3-5-5-5-5-5-5-5-5-|


---------------------------------
BREAK
******
G|-------------------------|-------------------|
D|-------------------------|-------------------|
A|-7~~~-5~~~~--------------|-7--7--7-7-5-------|
E|-------------5~~~~-5~~~~-|---------------8-7-|


---------------------------------
CHORUS
*******
G|-----------------------------------------|-----------------------------------------|
D|-----------------------------------------|-----------------------------------------|
A|-----------------------------------------|-5--5-5--5-5--5-5--5-5--5-5--5-5--5-5--5-|
E|-5--5-5--5-5--5-5--5-5--5-5--5-5--5-5--5-|-----------------------------------------|

                       Fade Out....................................................
G|-----------------------------------------|------------------|---------------------|
D|-----------------------------------------|------------------|--s------------------|
A|-7--7-7--7-7--7-7--7-7--7-7--7-7--7-7--7-|------------------|-5\7-7--5-5----------|
E|-----------------------------------------|-5--5-5--5-5--5-5-|------------8-8--7-7-|



ENJOY.............
Suggest correction
Give kudos to tab author, rate the tab!
1 2 3 4 5
comments
print report bad tab
guest
You may want to rate the tab now too:
select rating
Wanna post a correction for this tab? Suggest correction