Oops, an error
Loading. Please wait.

Angel Baby Bass Tab

7 views 1 this week
no commentswrite comment
1 2 3 4 5
2 more votes to show rating
add to favorites
launch autoscroll
font size
0
reset
guitar tuner
Autoscroll
slow
fast
+/-
esc
set tempo
stop
Help us to improve Ultimate-Guitar.com Take our survey!
×
Author
Difficulty
novice
--------------------------------------------------------------------------
                            Artist - Bay City Rollers
                          ****************************
                               Song - Angel Baby
                              *******************
                              Tabbed By - Ayreon77
                             **********************
--------------------------------------------------------------------------
Tuning = Standard        


00:03
INTRO
******
G|-------|-----------|----------|------------|----------|------------|
D|-----6-|---6-7-9-6-|-7--7-7---|-7-7--7-7-6-|-4--4-4---|-4-4--4-4-2-|
A|-7-9---|-7---------|--------7-|------------|--------4-|------------|
E|-------|-----------|----------|------------|----------|------------|


G|----------|----------------|----------|-------|-----------|
D|----------|----------------|-2--2-2---|-----6-|---6-7-9-6-|
A|-2--2-2---|-2-2--2-2-4-5-2-|--------2-|-7-9---|-7---------|
E|--------2-|----------------|----------|-------|-----------|


-------------------------------
00:22
VERSE 1
********
G|----------|--------------|----------|------------|----------|------------|----------|-----------|
D|-7--7-7---|-7-7--7-7---7-|----------|------------|----------|----------6-|-7--7-7---|-7-7-----6-|
A|--------7-|----------7---|-5--5-5---|-5-5--5-5---|-7--7-7---|-7-7--7-9---|--------7-|-----7-9---|
E|----------|--------------|--------5-|----------5-|--------7-|------------|----------|-----------|

00:39
G|----------|--------------|----------|------------|----------|------------|----------|------------|
D|-7--7-7---|-7-7--7-7---7-|----------|------------|----------|----------6-|-7--7-7---|----------6-|
A|--------7-|----------7---|-5--5-5---|-5-5--5-5---|-7--7-7---|-7-7--7-9---|--------7-|-7-7--7-9---|
E|----------|--------------|--------5-|----------5-|--------7-|------------|----------|------------|


-------------------------------
00:56
CHORUS
*******
G|----------|------------|----------|------------|
D|-7--7-7---|-7-7--7-7-6-|-4--4-4---|-4-4--4-4-2-|
A|--------7-|------------|--------4-|------------|
E|----------|------------|----------|------------|


G|----------|----------------|----------|-------|-----------|
D|----------|----------------|-2--2-2---|-----6-|---6-7-9-6-|
A|-2--2-2---|-2-2--2-2-4-5-2-|--------2-|-7-9---|-7---------|
E|--------2-|----------------|----------|-------|-----------|

01:13
G|----------|------------|----------|------------|
D|-7--7-7---|-7-7--7-7-6-|-4--4-4---|-4-4--4-4-2-|
A|--------7-|------------|--------4-|------------|
E|----------|------------|----------|------------|


G|----------|----------------|------------|  |--------s-|
D|----------|----------------|-2--2-2---2-|  |------14\-|
A|-2--2-2---|-2-2--2-2-4-5-2-|--------2---|  |----------|
E|--------2-|----------------|------------|  |-5~~~-----|


-------------------------------
01:33
VERSE 2
********
G|----------|--------------|----------|------------|----------|------------|----------|-----------|
D|-7--7-7---|-7-7--7-7---7-|----------|------------|----------|----------6-|-7--7-7---|-7-7-----6-|
A|--------7-|----------7---|-5--5-5---|-5-5--5-5---|-7--7-7---|-7-7--7-9---|--------7-|-----7-9---|
E|----------|--------------|--------5-|----------5-|--------7-|------------|----------|-----------|

01:50
G|----------|--------------|----------|------------|----------|------------|----------|------------|
D|-7--7-7---|-7-7--7-7---7-|----------|------------|----------|----------6-|-7--7-7---|----------6-|
A|--------7-|----------7---|-5--5-5---|-5-5--5-5---|-7--7-7---|-7-7--7-9---|--------7-|-7-7--7-9---|
E|----------|--------------|--------5-|----------5-|--------7-|------------|----------|------------|


-------------------------------
02::07
CHORUS
*******
G|----------|------------|----------|------------|
D|-7--7-7---|-7-7--7-7-6-|-4--4-4---|-4-4--4-4-2-|
A|--------7-|------------|--------4-|------------|
E|----------|------------|----------|------------|


G|----------|----------------|----------|-------|-----------|
D|----------|----------------|-2--2-2---|-----6-|---6-7-9-6-|
A|-2--2-2---|-2-2--2-2-4-5-2-|--------2-|-7-9---|-7---------|
E|--------2-|----------------|----------|-------|-----------|

01:13
G|----------|------------|----------|------------|
D|-7--7-7---|-7-7--7-7-6-|-4--4-4---|-4-4--4-4-2-|
A|--------7-|------------|--------4-|------------|
E|----------|------------|----------|------------|


G|----------|----------------|------------|--s--|
D|----------|----------------|-2--2-2---2-|-14\-|
A|-2--2-2---|-2-2--2-2-4-5-2-|--------2---|-----|
E|--------2-|----------------|------------|-----|


-------------------------------
02:41
BRIDGE
*******
G|----------|------------|----------|------------|
D|-7--7-7---|-7-7--7-7-6-|-4--4-4---|-4-4--4-4-2-|
A|--------7-|------------|--------4-|------------|
E|----------|------------|----------|------------|


G|----------|----------------|----------|------------|
D|----------|----------------|-2--2-2---|-3-3--3-3---|
A|-2--2-2---|-2-2--2-2-4-5-2-|--------2-|----------3-|
E|--------2-|----------------|----------|------------|


-------------------------------
02:58
CHORUS - KEY CHANGE
*******
G|----------|------------|----------|------------|
D|-8--8-8---|-8-8--8-8-7-|-5--5-5---|-5-5--5-5-3-|
A|--------8-|------------|--------5-|------------|
E|----------|------------|----------|------------|


G|----------|----------------|----------|----------|----------|
D|----------|----------------|-3--3-3---|------7---|-6-7-10-6-|
A|-3--3-3---|-3-3--3-3-5-6-3-|--------3-|-8-10---8-|----------|
E|--------3-|----------------|----------|----------|----------|

                Repeat Last Chorus 3 Times And Fade Out........

ENJOY..........
Suggest correction
Give kudos to tab author, rate the tab!
1 2 3 4 5
comments
print report bad tab
guest
You may want to rate the tab now too:
select rating
Wanna post a correction for this tab? Suggest correction