Oops, an error
Loading. Please wait.

Be My Baby Bass Tab

19 views 1 this week
no commentswrite comment
1 2 3 4 5
1 last vote to show rating
add to favorites
launch autoscroll
font size
0
reset
guitar tuner
Autoscroll
slow
fast
+/-
esc
set tempo
stop
Help us to improve Ultimate-Guitar.com Take our survey!
×
Author
Tuning
E A D G B E
--------------------------------------------------------------------------
                            Artist - Bay City Rollers
                          ****************************
                               Song - Be My Baby
                              *******************
                              Tabbed By - Ayreon77
                             **********************
--------------------------------------------------------------------------
Tuning = Standard             


00:04
VERSE 1
********
G|--------|--------|---|--------|---------|---|
D|--------|--------|---|--------|---------|---|
A|---3~~~-|---5~~~-|---|---3~~~-|---5~~~~-|---|
E|-3------|-5------|-3-|-3------|-5-------|-3-|


G|----------|----------|----------|----------|----------|----------|
D|----------|----------|-7--7-7---|-7--7-7---|----------|----------|
A|-7--7-7---|-7--7-7---|--------7-|--------7-|-5--5-5---|-5--5-5---|
E|--------7-|--------7-|----------|----------|--------5-|--------5-|


G|--------------------|
D|--------------------|
A|------0--0-2----0-2-|
E|-3--3---------3-----|


------------------------
00:39
CHORUS
*******
G|----------|----------|----------|----------|----------|------------|
D|----------|----------|-7--7-7---|-7--7-7-5-|-3--3-3---|-3--3-3-2-3-|
A|-3--3-3---|-3--3-3---|--------7-|----------|--------3-|------------|
E|--------3-|--------3-|----------|----------|----------|------------|


G|----------|------------|
D|-5--5-5---|-5--3--2--0-|
A|--------5-|------------|
E|----------|------------|


------------------------
00:55
VERSE 2
********
G|-------------|-------------|-------------|-----------------|
D|-------------|-------------|-------------|-----------------|
A|-3-3-3-5-3---|-3-3-3-5-3---|-5-5-5-7-5---|-5-5-5-7-5---0-2-|
E|-----------3-|-----------3-|-----------5-|-----------3-----|

01:03
G|-------------|-------------|-------------|-----------------|
D|-------------|-------------|-------------|-----------------|
A|-3-3-3-5-3---|-3-3-3-5-3---|-5-5-5-7-5---|-5-5-5-7-5---0-2-|
E|-----------3-|-----------3-|-----------5-|-----------3-----|

01:12
G|----------|----------|----------|----------|----------|----------|
D|----------|----------|-7--7-7---|-7--7-7---|----------|----------|
A|-7--7-7---|-7--7-7---|--------7-|--------7-|-5--5-5---|-5--5-5---|
E|--------7-|--------7-|----------|----------|--------5-|--------5-|


G|--------------------|
D|--------------------|
A|------0--0-2----0-2-|
E|-3--3---------3-----|


------------------------
01:28
CHORUS
*******
G|----------|----------|----------|----------|----------|------------|
D|----------|----------|-7--7-7---|-7--7-7-5-|-3--3-3---|-3--3-3-2-3-|
A|-3--3-3---|-3--3-3---|--------7-|----------|--------3-|------------|
E|--------3-|--------3-|----------|----------|----------|------------|


G|----------|------------|
D|-5--5-5---|-5--3--2--0-|
A|--------5-|------------|
E|----------|------------|


------------------------
01:45
SOLO
*****
G|----------------|--------------|----------------|--------------|
D|----------------|--------------|----------------|--------------|
A|-3~~~~~--3~~~~~-|-5~~~~--------|-3~~~~~--3~~~~~-|-5~~~~--------|
E|----------------|--------3~~~~-|----------------|--------3~~~~-|


------------------------
02:01
BRIDGE
*******
G|----------|----------|----------|----------|----------|----------|
D|----------|----------|-7--7-7---|-7--7-7---|----------|----------|
A|-7--7-7---|-7--7-7---|--------7-|--------7-|-5--5-5---|-5--5-5---|
E|--------7-|--------7-|----------|----------|--------5-|--------5-|


G|--------------------|
D|--------------------|
A|------0--0-2----0-2-|
E|-3--3---------3-----|


------------------------
02:18
CHORUS
*******
G|----------|----------|----------|----------|----------|------------|
D|----------|----------|-7--7-7---|-7--7-7-5-|-3--3-3---|-3--3-3-2-3-|
A|-3--3-3---|-3--3-3---|--------7-|----------|--------3-|------------|
E|--------3-|--------3-|----------|----------|----------|------------|


G|----------|------------|
D|-5--5-5---|-5--3--2--0-|
A|--------5-|------------|
E|----------|------------|



ENJOY...........
Suggest correction
Give kudos to tab author, rate the tab!
1 2 3 4 5
comments
print report bad tab
guest
You may want to rate the tab now too:
select rating
Wanna post a correction for this tab? Suggest correction