Oops, an error
Loading. Please wait.

Bye Bye Baby Tab

97 views 1 this week
2 commentsread comments
1 2 3 4 5
1 last vote to show rating
add to favorites
launch autoscroll
font size
0
reset
how to read this tab
guitar tuner
Autoscroll
slow
fast
+/-
esc
set tempo
stop
Help us to improve Ultimate-Guitar.com Take our survey!
×
Author
Difficulty
novice
------------------------------------------------------------------------------------------------------------
                                       Artist - The Bay City Rollers 
                                      *******************************
                                           Song - Bye Bye Baby 
                                          *********************
                                           Tabbed By - Ayreon77
                                          **********************
------------------------------------------------------------------------------------------------------------
Tuning = Standard


                    s               s
e|--s----|-------|-5\7-4---|-------2\4--------|
B|-7\9-9-|-7-7-5-|-------5-|-2-5-2------5-7-5-|
G|-------|-------|---------|------------------|
D|-------|-------|---------|------------------|
A|-------|-------|---------|------------------|
E|-------|-------|---------|------------------|

    s             s                   s
e|-5\7-5-4-----|-5\7-4-5-5~~-|-5-4-5-5\7-|
B|---------7-5-|-------------|-----------|
G|-------------|-------------|-----------|
D|-------------|-------------|-----------|
A|-------------|-------------|-----------|
E|-------------|-------------|-----------|

    s               s                  s               s
e|-5\7-7-|-5-5-3-|-8\10-8-7---|-------5\7-5-|---5---|-8\10-8-7------|
B|-------|-------|----------8-|-5-8-5-------|-8---8-|----------10-8-|
G|-------|-------|------------|-------------|-------|---------------|
D|-------|-------|------------|-------------|-------|---------------|
A|-------|-------|------------|-------------|-------|---------------|
E|-------|-------|------------|-------------|-------|---------------|
Suggest correction
Give kudos to tab author, rate the tab!
1 2 3 4 5
comments
print report bad tab
2 comments total.
0 reply
JackDelonge 57 Sep 23, 2016 10:16 AM

Brilliant tab, thanks!

0 reply
ayreon77 17,804 Sep 23, 2016 12:17 PM

Glad you liked it Jack :) thx for the rate too

guest
You may want to rate the tab now too:
select rating
Wanna post a correction for this tab? Suggest correction