Oops, an error
Loading. Please wait.

Jenny Gotta Dance Bass Tab

13 views 1 this week
no commentswrite comment
1 2 3 4 5
2 more votes to show rating
add to favorites
launch autoscroll
font size
0
reset
guitar tuner
Autoscroll
slow
fast
+/-
esc
set tempo
stop
Help us to improve Ultimate-Guitar.com Take our survey!
×
Author
Difficulty
novice
--------------------------------------------------------------------------
                            Artist - Bay City Rollers
                          ****************************
                            Song - Jenny Gotta Dance
                           **************************
                              Tabbed By - Ayreon77
                             **********************
--------------------------------------------------------------------------
Tuning = Standard             


00:10
INTRO
******
G|---------|---------|---------|---------|
D|---------|---------|---------|---------|
A|-7-7-7-7-|-7-7-7-7-|-7-7-7-7-|-7-7-7-7-|
E|---------|---------|---------|---------|


G|---------|---------|---------|---------|---------|---------|---------|---------|
D|---------|---------|---------|---------|---------|---------|---------|---------|
A|-7-7-7-7-|-7-7-7-7-|---------|---------|-7-7-7-7-|-7-7-7-7-|-7-7-7-7-|-7-7-7-7-|
E|---------|---------|-5-5-5-5-|-5-5-5-5-|---------|---------|---------|---------|


NO BASS

-------------------------
00:34
VERSE 1
********
G|---------|------------|-------------|----------|
D|---------|--------s---|-------------|----------|
A|-9-9-9-9-|-9-9-9-9\11-|-12-12-12-12-|-12-12-12-|
E|---------|------------|-------------|----------|


G|---s---------------|----------------|-------------|----------------|
D|-12\14-------------|------------s---|-------------|------------s---|
A|-------------------|----------12\14-|-------------|----------12\14-|
E|-------12-12-12-12-|-12-12-12-------|-12-12-12-12-|-12-12-12-------|


-------------------------
00:43
VERSE 2 - NO BASS
********
G|00:53----|------------|-------------|----------|
D|---------|--------s---|-------------|----------|
A|-9-9-9-9-|-9-9-9-9\11-|-12-12-12-12-|-12-12-12-|
E|---------|------------|-------------|----------|


G|---s------------------------------|
D|-12\14------------------------s---|
A|-------14-14-14-14-14-14-14-14\---|
E|--------------------------------7-|


-------------------------
01:02
CHORUS
*******
G|-9-9------|-9-9------|-9-9------|-9-9------|---------|----------|-9-9------|-9--s-|
D|-----11-9-|-----11-9-|-----11-9-|-----11-9-|-7-7-----|-9-9------|-----11-9-|---9\-|
A|----------|----------|----------|----------|-----9-7-|-----11-9-|----------|------|
E|----------|----------|----------|----------|---------|----------|----------|------|


G|-9-9------|-9-9------|-9-9------|-9-9------|---------|----------|-9-9------|-9-9------|----------|
D|-----11-9-|-----11-9-|-----11-9-|-----11-9-|-7-7-----|-9-9------|-----11-9-|-----9-11-|-9--------|
A|----------|----------|----------|----------|-----9-7-|-----11-9-|----------|----------|---11-9-7-|
E|----------|----------|----------|----------|---------|----------|----------|----------|----------|

01:29
G|---------|---------|---------|---------|---------|---------|---------|---------|
D|-9-9-9-9-|-9-9-9-9-|-7-7-7-7-|-7-7-7-7-|---------|---------|---------|---------|
A|---------|---------|---------|---------|-7-7-7-7-|-7-7-7-7-|-7-7-7-7-|-7-7-7-7-|
E|---------|---------|---------|---------|---------|---------|---------|---------|


-------------------------
01:38
VERSE 3 - NO BASS
********
G|01:47----|------------|-------------|----------|
D|---------|--------s---|-------------|----------|
A|-9-9-9-9-|-9-9-9-9\11-|-12-12-12-12-|-12-12-12-|
E|---------|------------|-------------|----------|


G|---s---------------|----------------|-------------|----------------|
D|-12\14-------------|------------s---|-------------|------------s---|
A|-------------------|----------12\14-|-------------|----------12\14-|
E|-------12-12-12-12-|-12-12-12-------|-12-12-12-12-|-12-12-12-------|


-------------------------
01:57
VERSE 4 - NO BASS
********
G|02:06----|------------|-------------|----------|
D|---------|--------s---|-------------|----------|
A|-9-9-9-9-|-9-9-9-9\11-|-12-12-12-12-|-12-12-12-|
E|---------|------------|-------------|----------|


G|---s------------------------------|
D|-12\14------------------------s---|
A|-------14-14-14-14-14-14-14-14\---|
E|--------------------------------7-|


-------------------------
02:16
CHORUS
*******
CHORUS
*******
G|-9-9------|-9-9------|-9-9------|-9-9------|---------|----------|-9-9------|-9--s-|
D|-----11-9-|-----11-9-|-----11-9-|-----11-9-|-7-7-----|-9-9------|-----11-9-|---9\-|
A|----------|----------|----------|----------|-----9-7-|-----11-9-|----------|------|
E|----------|----------|----------|----------|---------|----------|----------|------|


G|-9-9------|-9-9------|-9-9------|-9-9------|---------|----------|-9-9------|-9-9------|------------|
D|-----11-9-|-----11-9-|-----11-9-|-----11-9-|-7-7-----|-9-9------|-----11-9-|-----9-11-|-9-9--------|
A|----------|----------|----------|----------|-----9-7-|-----11-9-|----------|----------|-----11-9-7-|
E|----------|----------|----------|----------|---------|----------|----------|----------|------------|

02:51                                                  Fade Out..........................
G|-9-9------|-9-9------|-9-9------|-9-9------|---------|----------|-9-9------|-9-9------|
D|-----11-9-|-----11-9-|-----11-9-|-----11-9-|-7-7-----|-9-9------|-----11-9-|-----11-9-|
A|----------|----------|----------|----------|-----9-7-|-----11-9-|----------|----------|
E|----------|----------|----------|----------|---------|----------|----------|----------|



ENJOY.........
Suggest correction
Give kudos to tab author, rate the tab!
1 2 3 4 5
comments
print report bad tab
guest
You may want to rate the tab now too:
select rating
Wanna post a correction for this tab? Suggest correction