Oops, an error
Loading. Please wait.

Just A Little Love Bass Tab

13 views 1 this week
no commentswrite comment
1 2 3 4 5
3 more votes to show rating
add to favorites
launch autoscroll
font size
0
reset
guitar tuner
Autoscroll
slow
fast
+/-
esc
set tempo
stop
Help us to improve Ultimate-Guitar.com Take our survey!
×
Author
Difficulty
novice
--------------------------------------------------------------------------
                            Artist - Bay City Rollers
                          ****************************
                           Song - Just a Little Love
                          ***************************
                             Tabbed By - Ayreon77
                            **********************
--------------------------------------------------------------------------
Tuning = Standard             


00:06
INTRO
******
    s
G|-7\9-7---------|-----------------s-|
D|-------9-7-5---|----------------7\-|
A|-------------7-|---7----8----8-----|
E|---------------|-7----8----8-------|


-----------------------
00:17
VERSE 1
********
G|-----------------------s----|--------------------------s----|
D|----------------------5\7-5-|--------------------5-5--5\7-5-|
A|-7----7----8-8----8-8-------|-7----7-7----8-8--5------------|
E|----7----8------8-----------|----7------8-------------------|


G|------------|--------------|--------------|--------------|
D|--------5-5-|-5------------|----------5-5-|-5------------|
A|-5-5--5-----|---7-7--7-8-8-|-7-5-5--5-----|---7-7--7-8-8-|
E|------------|--------------|--------------|--------------|


-----------------------
CHORUS
*******
G|-----s-----------------|--s-----------------|-12-9-----------|
D|----5\7-5--------------|-5\7-5--------------|------12-10---s-|
A|-7--------7-5-8-8--8-7-|-------7-5-8-8--8-7-|------------12\-|
E|-----------------------|--------------------|----------------|


-----------------------
01:02
VERSE 2
********
G|-----------------------s----|--------------------------s----|
D|----------------------5\7-5-|--------------------5-5--5\7-5-|
A|-7----7----8-8----8-8-------|-7----7-7----8-8--5------------|
E|----7----8------8-----------|----7------8-------------------|

                                                             s
G|------------|--------------|--------------|--s----------|-7\9-7------s-|
D|--------5-5-|-5------------|----------5-5-|-5\7-5-------|-------9-7-5\-|
A|-5-5--5-----|---7-7--7-8-8-|-7-5-5--5-----|-------7-7-8-|--------------|
E|------------|--------------|--------------|-------------|--------------|


-----------------------
01:37
CHORUS
*******
G|-----s-----------------|--s-----------------|-12-9-----------|
D|----5\7-5--------------|-5\7-5--------------|------12-10---s-|
A|-7--------7-5-8-8--8-7-|-------7-5-8-8--8-7-|------------12\-|
E|-----------------------|--------------------|----------------|


-----------------------
01:50
SOLO
*****
G|-----------------------s----|--------------------------s----|
D|----------------------5\7-5-|--------------------5-5--5\7-5-|
A|-7----7----8-8----8-8-------|-7----7-7----8-8--5------------|
E|----7----8------8-----------|----7------8-------------------|


-----------------------
02:07
MID VERSE 3
************
G|------------|--------------|--------------|--------------|
D|--------5-5-|-5------------|----------5-5-|-5------------|
A|-5-5--5-----|---7-7--7-8-8-|-7-5-5--5-----|---7-7--7-8-8-|
E|------------|--------------|--------------|--------------|


-----------------------
02:23
CHORUS
*******
G|-----s-----------------|--s-----------------|-----s-----------------|-12-9-----------|
D|----5\7-5--------------|-5\7-5--------------|----5\7-5--------------|------12-10---s-|
A|-7--------7-5-8-8--8-7-|-------7-5-8-8--8-7-|-7--------7-5-8-8--8-7-|------------12\-|
E|-----------------------|--------------------|-----------------------|----------------|


-----------------------
02:39
OUTRO SOLO
***********         s                          s
G|---------------|-9\12-9----------|--------4-5\7-|
D|---------------|--------12-10----|------5-------|
A|-7----7----8-8-|--------------12-|-7--7---------|
E|----7----8-----|-----------------|--------------|



ENJOY...........
Suggest correction
Give kudos to tab author, rate the tab!
1 2 3 4 5
comments
print report bad tab
guest
You may want to rate the tab now too:
select rating
Wanna post a correction for this tab? Suggest correction