Oops, an error
Loading. Please wait.

Keep On Dancing Bass Tab

10 views 3 this week
no commentswrite comment
1 2 3 4 5
2 more votes to show rating
add to favorites
launch autoscroll
font size
0
reset
guitar tuner
Autoscroll
slow
fast
+/-
esc
set tempo
stop
Help us to improve Ultimate-Guitar.com Take our survey!
×
Author
Difficulty
novice
--------------------------------------------------------------------------
                            Artist - Bay City Rollers
                          ****************************
                             Song - Keep on Dancing
                            ************************
                              Tabbed By - Ayreon77
                             **********************
--------------------------------------------------------------------------
Tuning = Standard             


00:20
bass comes in halfway through VERSE 1
G|------------------------|-----------------------|--------------------------|
D|-7-7--4-4-----------4-6-|-7-7--4-4----------4-6-|-7-7--4-4-----------4-6-7-|
A|-----------5-5-7--7-----|----------5-5-7--7-----|-----------5-5-7--7-------|
E|------------------------|-----------------------|--------------------------|


------------------------
00:31
CHORUS
*******
G|------------------------|-----------------------|--------------------------|
D|-7-7--4-4-----------4-6-|-7-7--4-4----------4-6-|-7-7--4-4-----------4-6-7-|
A|-----------5-5-7--7-----|----------5-5-7--7-----|-----------5-5-7--7-------|
E|------------------------|-----------------------|--------------------------|


G|------------------------------|
D|-7--7--7--7--7--7--7--7---4-6-|
A|------------------------7-----|
E|------------------------------|X3


------------------------
00:48
VERSE 2
********
G|------------------------|-----------------------|--------------------------|
D|-7-7--4-4-----------4-6-|-7-7--4-4----------4-6-|-7-7--4-4-----------4-6-7-|
A|-----------5-5-7--7-----|----------5-5-7--7-----|-----------5-5-7--7-------|
E|------------------------|-----------------------|--------------------------|


G|------------------------|-----------------------|--------------------------|
D|-7-7--4-4-----------4-6-|-7-7--4-4----------4-6-|-7-7--4-4-----------4-6-7-|
A|-----------5-5-7--7-----|----------5-5-7--7-----|-----------5-5-7--7-------|
E|------------------------|-----------------------|--------------------------|


------------------------
01:14
CHORUS
*******
G|------------------------|-----------------------|--------------------------|
D|-7-7--4-4-----------4-6-|-7-7--4-4----------4-6-|-7-7--4-4-----------4-6-7-|
A|-----------5-5-7--7-----|----------5-5-7--7-----|-----------5-5-7--7-------|
E|------------------------|-----------------------|--------------------------|


G|------------------------------|
D|-7--7--7--7--7--7--7--7---4-6-|
A|------------------------7-----|
E|------------------------------|X3


------------------------
01:32
BREAK - No Bass
******


------------------------
01:49
VERSE 3 - Key Change
********
G|-----------------------|-----------------------|-------------------------|
D|-9-9--6-6----------6-8-|-9-9--6-6----------6-8-|-9-9--6-6----------6-8-9-|
A|----------7-7-9--9-----|----------7-7-9--9-----|----------7-7-9--9-------|
E|-----------------------|-----------------------|-------------------------|


G|-----------------------|-----------------------|-------------------------|
D|-9-9--6-6----------6-8-|-9-9--6-6----------6-8-|-9-9--6-6----------6-8-9-|
A|----------7-7-9--9-----|----------7-7-9--9-----|----------7-7-9--9-------|
E|-----------------------|-----------------------|-------------------------|


G|-----------------------|-----------------------|-------------------------|
D|-9-9--6-6----------6-8-|-9-9--6-6----------6-8-|-9-9--6-6----------6-8-9-|
A|----------7-7-9--9-----|----------7-7-9--9-----|----------7-7-9--9-------|
E|-----------------------|-----------------------|-------------------------|


G|-----------------------|-----------------------|-------------------------|
D|-9-9--6-6----------6-8-|-9-9--6-6----------6-8-|-9-9--6-6----------6-8-9-|
A|----------7-7-9--9-----|----------7-7-9--9-----|----------7-7-9--9-------|
E|-----------------------|-----------------------|-------------------------|



ENJOY.........
Suggest correction
Give kudos to tab author, rate the tab!
1 2 3 4 5
comments
print report bad tab
guest
You may want to rate the tab now too:
select rating
Wanna post a correction for this tab? Suggest correction