Oops, an error
Loading. Please wait.

Keep On Dancing bass

version 2
version 2

Whole song

31 views 1 this week
no commentswrite comment
1 2 3 4 5
2 more votes to show rating
add to favorites
×
Save as Personal and add changes to this tab that will be seen only by you. Learn more ›
×
You can save this tab as Personal to edit and correct it or add notes. All changes will be seen only by you. Learn more »
launch autoscroll
font size
0
reset
guitar tuner
edit
Autoscroll
slow
fast
+/-
esc
set tempo
stop
Author
Keep On Dancing
This is how it all started for the Tartan Sensations from Edinburgh 
The Bay City Rollers way back in 1971.  Reached number 9 UK charts
Bass performance Alan Longmuir. Tab by bass50611. Bass line as I see it 
Original recorded key is Bb and not as suggested in other Tabs

Intro: (DRUM ROLL START NO BASS)

Verse 1:
Keep On Dancing...Keep on doin’ the jerk...shake it, shake it baby
G|----------------------------------------------------------------|
D|--NO BASS-------------------------------------------------------|
A|----------------------------------------------------------------|
E|----------------------------------------------------------------|

  Come on and show me how you work
G|-------------------------------------------------|
D|-NO BASS UNTIL---------------------------8---8---|
A|-------------------------------------------8---8-|
E|-------------------------------------------------|

G|-------------------------------------------------------------------|
D|-8--8---5--5----------------8--8---5--5----------------8--8---5--5-|
A|--------------6--6---8--8----------------6--6---8--8---------------|
E|-------------------------------------------------------------------|

               (Break)
G|-------------------------------------|
D|--------------8----------------------|
A|-6--6---8--8--------------8--8--8--8-|
E|-------------------------------------|

Chorus 1:
G|-------------------------------------------------------------------|
D|-8--8---5--5----------------8--8---5--5----------------8--8---5--5-|
A|--------------6--6---8--8----------------6--6---8--8---------------|
E|-------------------------------------------------------------------|

G|--------------------------------------------------------------|
D|--------------8--8--8--8--8--8--8-----8--8--8--8--8--8--8-----|
A|-6--6---8--8---------------------8-10--------------------8-10-|
E|--------------------------------------------------------------|

G|--------------------------------------------------|
D|-8--8--8--8--8--8--8-----8--8---5--5--------------|
A|--------------------8-10--------------6--6---8--8-|
E|--------------------------------------------------|

Verse 2:
G|-------------------------------------------------------------------|
D|-8--8---5--5----------------8--8---5--5----------------8--8---5--5-|
A|--------------6--6---8--8----------------6--6---8--8---------------|
E|-------------------------------------------------------------------|

               (Break)
G|-------------------------------------|
D|--------------8----------------------|
A|-6--6---8--8--------------8--8--8--8-|
E|-------------------------------------|

Chorus 2:
G|-------------------------------------------------------------------|
D|-8--8---5--5----------------8--8---5--5----------------8--8---5--5-|
A|--------------6--6---8--8----------------6--6---8--8---------------|
E|-------------------------------------------------------------------|

               (Break)
G|---------------------------------|
D|--------------8----------8---8---|
A|-6--6---8--8---------------8---8-|
E|---------------------------------|

Bridge:
G|-------------------------------------------------------------------|
D|-8--8---5--5----------------8--8---5--5----------------8--8---5--5-|
A|--------------6--6---8--8----------------6--6---8--8---------------|
E|-------------------------------------------------------------------|

G|--------------------------------------------------------------|
D|--------------8--8--8--8--8--8--8-----8--8--8--8--8--8--8-----|
A|-6--6---8--8---------------------8-10--------------------8-10-|
E|--------------------------------------------------------------|

                        (Song Briefly Fades Out)
G|---------------------------------------------|
D|-8--8--8--8--8--8--8-------------------------|
A|--------------------8-10---------------------|
E|---------------------------------------------|

Drum Roll

Verse 3: (Key Change into B)
G|----------------------------------------------------------------|
D|-------------2--2---4--4---------------2--2---4--4--------------|
A|-2--2----------------------2--2----------------------2--2-------|
E|-------4--4----------------------4--4----------------------4--4-|

                (Break)
G|-----------------------------------|
D|-2--2---4--4------------4--4--4--4-|
A|--------------2--------------------|
E|-----------------------------------|

Outro:  (Repeat Outro To Fade/End)
G|----------------------------------------------------------------|
D|-------------2--2---4--4---------------2--2---4--4--------------|
A|-2--2----------------------2--2----------------------2--2-------|
E|-------4--4----------------------4--4----------------------4--4-|

                (Break)
G|-----------------------------------|
D|-2--2---4--4-----------------------|
A|--------------2--------------------|
E|------------------------2--2--2--2-|


            
            
Suggest correction
Creating personal tab
Creating personal tab
You can edit any tab online and save it as your Personal.

You can edit, replace or remove any tab part or add personal notes – all changes will be seen only by you.

Personal tabs can be accessed anytime from any device, even offline.
Learn more »
Give kudos to tab author, rate the tab!
1 2 3 4 5
comments
print report bad tab
guest
You may want to rate the tab now too:
select rating
Wanna post a correction for this tab? Suggest correction