Oops, an error
Loading. Please wait.

Life On The Radio Bass Tab

16 views 3 this week
no commentswrite comment
1 2 3 4 5
3 more votes to show rating
add to favorites
launch autoscroll
font size
0
reset
guitar tuner
Autoscroll
slow
fast
+/-
esc
set tempo
stop
Help us to improve Ultimate-Guitar.com Take our survey!
×
Author
Difficulty
novice
--------------------------------------------------------------------------
                            Artist - Bay City Rollers
                          ****************************
                            Song - Life On The Radio
                           **************************
                              Tabbed By - Ayreon77
                             **********************
--------------------------------------------------------------------------
Tuning = Standard             



00:34
G|------------------------|------------------------|
D|------------------------|------------------------|
A|-7--7--7--7--7--7--7--7-|-5--5--5--5--5--5--5--5-|
E|------------------------|------------------------|


G|------------------------|--------------------------|
D|------------------------|------------------------s-|
A|-4--4--4--4--4--4--4--4-|-3--3--3--3--3--3-2-3--3\-|
E|------------------------|--------------------------|


---------------------
00:51
VERSE 1
********
G|-----------------------------------------|---------------------|
D|-----------------------------------------|---------------------|
A|-7--7-7--7-7--7-7--7-7--7-7--7-7--7-7--7-|---------------------|
E|-----------------------------------------|-5--5-5--5-5--5-5--5-|


G|------------------|---------------------|---------------------|-------------|
D|------------------|---------------------|---------------------|-------------|
A|-7--7-7--7-7--7-7-|-4--4-4--4-4--4-4--4-|---------------------|---2-2---2-2-|
E|------------------|---------------------|-4--4-4--4-4--4-4--4-|-0-----0-----|


---------------------
01:20
VERSE 2
********
G|-----------------------------------------|---------------------|
D|-----------------------------------------|---------------------|
A|-7--7-7--7-7--7-7--7-7--7-7--7-7--7-7--7-|---------------------|
E|-----------------------------------------|-5--5-5--5-5--5-5--5-|


G|------------------|---------------------|---------------------|-----------------|
D|------------------|---------------------|---------------------|-------2-------2-|
A|-7--7-7--7-7--7-7-|-4--4-4--4-4--4-4--4-|---------------------|---2-2-----2-2---|
E|------------------|---------------------|-4--4-4--4-4--4-4--4-|-0-------0-------|


---------------------
01:48
CHORUS
*******
G|---------|---------|---------|---------|---------|---------|---------|---------|
D|-------2-|-------2-|-------2-|-------2-|-------2-|-------2-|-------2-|-------2-|
A|---2-2---|---2-2---|---0-0---|---0-0---|---2-2---|---2-2---|---0-0---|---0-0---|
E|-0-------|-0-------|-0-------|-0-------|-0-------|-0-------|-0-------|-0-------|


---------------------
02:05
BREAK
******
G|------------------------|------------------------|
D|------------------------|------------------------|
A|-7--7--7--7--7--7--7--7-|-5--5--5--5--5--5--5--5-|
E|------------------------|------------------------|


G|------------------------|--------------------------|
D|------------------------|------------------------s-|
A|-4--4--4--4--4--4--4--4-|-3--3--3--3--3--3-2-3--3\-|
E|------------------------|--------------------------|


---------------------
02:21
VERSE 3
********
G|-----------------------------------------|---------------------|
D|-----------------------------------------|---------------------|
A|-7--7-7--7-7--7-7--7-7--7-7--7-7--7-7--7-|---------------------|
E|-----------------------------------------|-5--5-5--5-5--5-5--5-|


G|------------------|---------------------|---------------------|-----------------|
D|------------------|---------------------|---------------------|-------2-------2-|
A|-7--7-7--7-7--7-7-|-4--4-4--4-4--4-4--4-|---------------------|---2-2-----2-2---|
E|------------------|---------------------|-4--4-4--4-4--4-4--4-|-0-------0-------|


---------------------
02:50
CHORUS
*******
G|---------|---------|---------|---------|---------|---------|---------|---------|
D|-------2-|-------2-|-------2-|-------2-|-------2-|-------2-|-------2-|-------2-|
A|---2-2---|---2-2---|---0-0---|---0-0---|---2-2---|---2-2---|---0-0---|---0-0---|
E|-0-------|-0-------|-0-------|-0-------|-0-------|-0-------|-0-------|-0-------|X2


---------------------
03:22
BREAK
******
G|------------------------|------------------------|
D|------------------------|------------------------|
A|-7--7--7--7--7--7--7--7-|-5--5--5--5--5--5--5--5-|
E|------------------------|------------------------|


G|------------------------|--------------------------|
D|------------------------|------------------------s-|
A|-4--4--4--4--4--4--4--4-|-3--3--3--3--3--3-2-3--3\-|BAGPIPES
E|------------------------|--------------------------|   No Bass


---------------------
04:18
CHORUS         
*******                                    Fade Out..............................
G|---------|---------|---------|---------|---------|---------|---------|---------|
D|-------2-|-------2-|-------2-|-------2-|-------2-|-------2-|-------2-|-------2-|
A|---2-2---|---2-2---|---0-0---|---0-0---|---2-2---|---2-2---|---0-0---|---0-0---|
E|-0-------|-0-------|-0-------|-0-------|-0-------|-0-------|-0-------|-0-------|X2

              

ENJOY.........
Suggest correction
Give kudos to tab author, rate the tab!
1 2 3 4 5
comments
print report bad tab
guest
You may want to rate the tab now too:
select rating
Wanna post a correction for this tab? Suggest correction