Oops, an error
Loading. Please wait.

Love Is Bass Tab

22 views 1 this week
no commentswrite comment
1 2 3 4 5
2 more votes to show rating
add to favorites
launch autoscroll
font size
0
reset
guitar tuner
Autoscroll
slow
fast
+/-
esc
set tempo
stop
Help us to improve Ultimate-Guitar.com Take our survey!
×
Author
Difficulty
novice
--------------------------------------------------------------------------
                            Artist - Bay City Rollers
                          ****************************
                                 Song - Love Is
                                ****************
                              Tabbed By - Ayreon77
                             **********************
--------------------------------------------------------------------------
Tuning = Standard             



00:29
CHORUS
*******
G|------------|--------------------------|----------------|
D|------------|--------------------------|----------------|
A|------------|-7--7--7-6-4--------------|-7--7--7-6-4----|
E|-7--7--7--7-|-------------7-4--4--4--4-|-------------7--|


G|------------|-------------------------------|
D|------------|-------------9--11--12--9----7-|
A|------------|-7--7--9--9--------------------|
E|-7--7--7--7-|-------------------------------|


-----------------------
00:44
VERSE 2
********
G|------------|--------------|------------|------------|
D|------------|-6--6--6--6---|------------|------------|
A|-7--7--7--7-|------------7-|-4--4--4--4-|-7--7--7--7-|
E|------------|--------------|------------|------------|


G|------------|------------|------------|-----------|
D|------------|------------|-6--6--6--6-|-5--5--5-5-|
A|------------|------------|------------|-----------|
E|-7--7--7--7-|-7--7--7--7-|------------|-----------|


-----------------------
00:59
CHORUS
*******
G|------------|--------------------------|----------------|
D|------------|--------------------------|----------------|
A|------------|-7--7--7-6-4--------------|-7--7--7-6-4----|
E|-7--7--7--7-|-------------7-4--4--4--4-|-------------7--|


G|------------|-------------------------------|
D|------------|-------------9--11--12--9----7-|
A|------------|-7--7--9--9--------------------|
E|-7--7--7--7-|-------------------------------|


-----------------------
01:14
BREAK
******
G|---------------------------------------------------------------|
D|------------------------And So On------------------------------|
A|---------------------------------------------------------------|
E|-5-5-5-5-5-5-5-5-5-5-5-5-5-5-5-5-5-5-5-5-5-5-5-5-5-5-5-5-5-5-5-|

01:31
G|------------------------And So On--------------------------------|
D|--7-7-7-7-7-7-7-7-7-7-7-7-7-7-7-7-7-7-7-7-7-7-7-7-7-7-7-7-7-7-7--|
A|-----------------------------------------------------------------|
E|-5-5-5-5-5-5-5-5-5-5-5-5-5-5-5-5-5-5-5-5-5-5-5-5-5-5-5-5-5-5-5---|


-----------------------
01:48
VERSE 3
********
G|----s-|------------|------------|
D|-6-6\-|-4--4--4--4-|-7--7--7--7-|
A|------|------------|------------|
E|------|------------|------------|


G|------------|------------|------------|-----------|
D|------------|------------|-6--6--6--6-|-5--5--5-5-|
A|------------|------------|------------|-----------|
E|-7--7--7--7-|-7--7--7--7-|------------|-----------|


-----------------------
02:00
CHORUS
*******
G|------------|--------------------------|----------------|
D|------------|--------------------------|----------------|
A|------------|-7--7--7-6-4--------------|-7--7--7-6-4----|
E|-7--7--7--7-|-------------7-4--4--4--4-|-------------7--|


G|------------|-----------------------|
D|------------|-------------9--11--12-|
A|------------|-7--7--9--9------------|
E|-7--7--7--7-|-----------------------|


G|------------|--------------------------|----------------|
D|------------|--------------------------|----------------|
A|------------|-7--7--7-6-4--------------|-7--7--7-6-4----|
E|-7--7--7--7-|-------------7-4--4--4--4-|-------------7--|


G|------------|-----------------------------15-16-|
D|------------|-------------9--11--12-14-16-------|
A|------------|-7--7--9--9------------------------|
E|-7--7--7--7-|-----------------------------------|




ENJOY.........
Suggest correction
Give kudos to tab author, rate the tab!
1 2 3 4 5
comments
print report bad tab
guest
You may want to rate the tab now too:
select rating
Wanna post a correction for this tab? Suggest correction