Oops, an error
Loading. Please wait.

Marlina Bass Tab

4 views 1 this week
no commentswrite comment
1 2 3 4 5
2 more votes to show rating
add to favorites
launch autoscroll
font size
0
reset
guitar tuner
Autoscroll
slow
fast
+/-
esc
set tempo
stop
Help us to improve Ultimate-Guitar.com Take our survey!
×
Author
Difficulty
novice
--------------------------------------------------------------------------
                            Artist - Bay City Rollers
                          ****************************
                                Song - Marlina
                               ****************
                              Tabbed By - Ayreon77
                             **********************
--------------------------------------------------------------------------
Tuning = Standard             


INTRO
******
G|------------|
D|--s---------|
A|-8\-----s-8-|
E|----6--6\---|


-------------------------
00:08
VERSE 1
********
G|-----------|--------------|--------|----s----------|-------------|----------|--------|----s----------|
D|--s--------|----s---------|--------|---6\8---------|---10-----10-|----------|--------|---6\8---------|
A|-8\--------|---8\10-8-6---|--------|-------10-8----|-------------|-6-6--8-8-|--------|-------10-8----|
E|----8--8-8-|-8----------8-|-6--6-6-|-6----------10-|-8----8-8----|----------|-6--6-6-|-6----------10-|


-------------------------
00:25
VERSE 2
********
G|----------|--------------|--------|--------|-------------|----------|----s------------|
D|---10-----|----s---------|--------|--------|---10-----10-|----------|---6\8-----------|
A|----------|---8\10-8-6---|--------|--------|-------------|-6-6--8-8-|-------10-8------|
E|-8----8-8-|-8----------8-|-6--6-6-|-3--3-3-|-8----8-8----|----------|-6----------10-6-|


-------------------------
00:41
CHORUS
*******
G|-------|--------|----s----------|--------|
D|-------|--------|---6\8---------|--------|
A|-----5-|-6--6-6-|-------10-8----|-8--8-8-|
E|-6-8---|--------|-6----------10-|--------|


G|----------|---8-----|----s----------|-------------|
D|----------|---------|---6\8---------|-------------|
A|--------5-|-6---6-6-|-------10-8----|-----6--8----|
E|-6--6-8---|---------|-6----------10-|-8~~-------6-|


-------------------------
01:00
BREAK
******
G|------------|------|
D|--------s---|------|
A|--s-8--8\---|--s-8-|
E|-6\-------6-|-6\---|


-------------------------
01:06
VERSE 3
********
G|-----------|--------------|--------|----s----------|-------------|----------|--------|----s----------|
D|--s--------|----s---------|--------|---6\8---------|---10-----10-|----------|--------|---6\8---------|
A|-8\--------|---8\10-8-6---|--------|-------10-8----|-------------|-6-6--8-8-|--------|-------10-8----|
E|----8--8-8-|-8----------8-|-6--6-6-|-6----------10-|-8----8-8----|----------|-6--6-6-|-6----------10-|


-------------------------
01:23
VERSE 2
********
G|----------|--------------|--------|--------|-------------|----------|----s------------|
D|---10-----|----s---------|--------|--------|---10-----10-|----------|---6\8-----------|
A|----------|---8\10-8-6---|--------|--------|-------------|-6-6--8-8-|-------10-8------|
E|-8----8-8-|-8----------8-|-6--6-6-|-3--3-3-|-8----8-8----|----------|-6----------10-6-|


-------------------------
01:39
CHORUS
*******
G|-------|--------|----s----------|--------|
D|-------|--------|---6\8---------|--------|
A|-----5-|-6--6-6-|-------10-8----|-8--8-8-|
E|-6-8---|--------|-6----------10-|--------|


G|----------|---8-----|----s----------|-------------|
D|----------|---------|---6\8---------|-------------|
A|--------5-|-6---6-6-|-------10-8----|-----6--8----|
E|-6--6-8---|---------|-6----------10-|-8~~-------6-|


-------------------------
01:57
VIOLIN
*******
G|--------|--------|--------|----s----------|--------|--------|--------|----------------|
D|--------|--------|--------|---6\8---------|--------|--------|--------|-----s----------|
A|--------|--------|-6--6-6-|-------10-8----|--------|--------|-6--6-6-|-8--8\10-8------|
E|-6--6-6-|-8--8-8-|--------|-6----------10-|-6--6-6-|-8--8-8-|--------|-----------10-8-|


-------------------------
CHORUS
*******
G|--------|----s----------|--------|
D|--------|---6\8---------|--------|
A|-6--6-6-|-------10-8----|-8--8-8-|
E|--------|-6----------10-|--------|


G|----------|---8-----|----s----------|----------------|----s----------|
D|----------|---------|---6\8---------|----------------|---6\8---------|
A|--------5-|-6---6-6-|-------10-8----|---------6--8-8-|-------10-8----|
E|-6--6-8---|---------|-6----------10-|-8--8-8---------|-6----------10-|

02:32
G|--------|----s----------|--------|
D|--------|---6\8---------|--------|
A|-6--6-6-|-------10-8----|-8--8-8-|
E|--------|-6----------10-|--------|


G|----------|---8-----|----s----------|-------------|--s---------|-----|
D|----------|---------|---6\8---------|-------------|-6\8--------|-----|
A|--------5-|-6---6-6-|-------10-8----|-----6--8----|-----10-8---|-----|
E|-6--6-8---|---------|-6----------10-|-8~~-------6-|----------6-|-5-6-|



ENJOY.........
Suggest correction
Give kudos to tab author, rate the tab!
1 2 3 4 5
comments
print report bad tab
guest
You may want to rate the tab now too:
select rating
Wanna post a correction for this tab? Suggest correction