Oops, an error
Loading. Please wait.

Please Stay Bay Bass Tab

7 views 1 this week
no commentswrite comment
1 2 3 4 5
3 more votes to show rating
add to favorites
launch autoscroll
font size
0
reset
guitar tuner
Autoscroll
slow
fast
+/-
esc
set tempo
stop
Help us to improve Ultimate-Guitar.com Take our survey!
×
Author
Difficulty
novice
--------------------------------------------------------------------------
                            Artist - Bay City Rollers
                          ****************************
                            Song - Please Stay Bay
                           ************************
                             Tabbed By - Ayreon77
                            **********************
--------------------------------------------------------------------------
Tuning = Standard             



INTRO
******
G|-----|-----|----------|----------|----------|
D|-----|-----|---2----2-|----------|---2----2-|
A|-3~~-|---3-|-3----3---|---3----3-|-3----3---|
E|-----|-3---|----------|-3----3---|----------|


-------------------------
00:20
VERSE 1
********
G|-----|-----|----------|----------|----------|
D|-----|-----|---2----2-|----------|---2----2-|
A|-3~~-|---3-|-3----3---|---3----3-|-3----3---|
E|-----|-3---|----------|-3----3---|----------|


G|----------|---------|-----|---5----5-|------------------------s----|
D|---3----3-|-3-2-3-5-|---5-|-5----5---|---3-3-3-3-3-3-3-3-3-3-3\5-3-|
A|-3----3---|---------|-5---|----------|-3---------------------------|
E|----------|---------|-----|----------|-----------------------------|


G|-----|-----|----------|---5----5-|----------|
D|-----|-----|---5----5-|-5----5---|---5----5-|
A|-3~~-|---3-|-3----3---|----------|-3----3---|
E|-----|-3---|----------|----------|----------|


-------------------------
01:11
VERSE 2
********
G|-----|-----|----------|----------|----------|
D|-----|-----|---2----2-|----------|---2----2-|
A|-3~~-|---3-|-3----3---|---3----3-|-3----3---|
E|-----|-3---|----------|-3----3---|----------|


G|----------|---------|-----|---5----5-|------------------------s----|
D|---3----3-|-3-2-3-5-|---5-|-5----5---|---3-3-3-3-3-3-3-3-3-3-3\5-3-|
A|-3----3---|---------|-5---|----------|-3---------------------------|
E|----------|---------|-----|----------|-----------------------------|


G|-----|-----|----------|---5----5-|----------|---5----5-5-5-5-5-5-|-3-3-3-3-3-3-|-3-3-3-3-3-3-|
D|-----|-----|---5----5-|-5----5---|---5----5-|-5----5-------------|-------------|-------------|
A|-3~~-|---3-|-3----3---|----------|-3----3---|--------------------|-------------|-------------|
E|-----|-3---|----------|----------|----------|--------------------|-------------|-------------|


-------------------------
02:07
CHORUS
*******
G|------|--------|----------------|----------------|---5-5-5--3-3-3--2-2-2--------|
D|-3--3-|---3--3-|----------------|---5--5----5--5-|-5----------------------5-5-5-|
A|------|-3------|---3--3----3--3-|-5-------5------|------------------------------|
E|------|--------|-3-------3------|----------------|------------------------------|


G|------|--------|----------------|----------------|----------------|
D|-3--3-|---3--3-|----------------|---5--5----5--5-|---5--5----5--5-|
A|------|-3------|---3--3----3--3-|-5-------5------|-5-------5------|
E|------|--------|-3-------3------|----------------|----------------|


G|-----------|---------|---------|-------------|
D|-0-2-2-2-2-|-2-2-2-2-|-2-2-2-2-|-5-5-5-5-5-5-|
A|-----------|---------|---------|-------------|
E|-----------|---------|---------|-------------|


-------------------------
02:47
SOLO
*****
G|-----|-----|----------|----------|----------|
D|-----|-----|---2----2-|----------|---2----2-|
A|-3~~-|---3-|-3----3---|---3----3-|-3----3---|
E|-----|-3---|----------|-3----3---|----------|


-------------------------
03:03
VERSE 3
********
G|----------|---------|-----|---5----5-|-----------------------------|
D|---3----3-|-3-2-3-5-|---5-|-5----5---|---3-3-3-3-3-3-3-3-3-3-3-5-3-|
A|-3----3---|---------|-5---|----------|-3---------------------------|
E|----------|---------|-----|----------|-----------------------------|


G|-----|-----|----------|---5----5-|----------|---|
D|-----|-----|---5----5-|-5----5---|---5----5-|---|
A|-3~~-|---3-|-3----3---|----------|-3----3---|-3-|
E|-----|-3---|----------|----------|----------|---|



ENJOY............
Suggest correction
Give kudos to tab author, rate the tab!
1 2 3 4 5
comments
print report bad tab
guest
You may want to rate the tab now too:
select rating
Wanna post a correction for this tab? Suggest correction