Oops, an error
Loading. Please wait.

Summerlove Sensation Bass Tab

31 views 1 this week
no commentswrite comment
1 2 3 4 5
2 more votes to show rating
add to favorites
launch autoscroll
font size
0
reset
guitar tuner
Autoscroll
slow
fast
+/-
esc
set tempo
stop
Help us to improve Ultimate-Guitar.com Take our survey!
×
Author
Tuning
E A D G B E
--------------------------------------------------------------------------
                            Artist - Bay City Rollers
                          ****************************
                           Song - Summerlove Sensation
                          *****************************
                              Tabbed By - Ayreon77
                             **********************
--------------------------------------------------------------------------
Tuning = Standard             


INTRO
******
G|--------|--------|--------|--------|--------------|-----------|-----------|-----------|
D|--------|--------|--------|--------|--------------|-----------|-----------|-----------|
A|-8--8-8-|-8--8-8-|-8--8-8-|-8--8-8-|----10--10-10-|-10--10-10-|-10--10-10-|-10--10-10-|
E|--------|--------|--------|--------|-10-----------|-----------|-----------|-----------|


G|--------------|-----------|-----------|-----------|----------|--------|
D|----10--10-10-|-10--10-10-|-10--10-10-|-10--10-10-|----------|--------|
A|-10-----------|-----------|-----------|-----------|---8--8-8-|-8--8-8-|
E|--------------|-----------|-----------|-----------|-8--------|--------|


-------------------------------
VERSE 1
********
G|--------------------------------------------------------------------------------|
D|--------------------------------------------------------------------------------|
A|---8--8-8--8-8--8-8--8-8--8-8--8-8--8-8----8--8-8--8-8--8-8--8-8--8-8--8-8--8-8-|
E|-8---------------------------------------8--------------------------------------|


G|--------------------------------------------------------|
D|--------------------------------------------------------|
A|----10--10-10--10-10--10-10--10-10--10-10--10-10--10-10-|
E|-10-----------------------------------------------------|


G|-----------------------------------------------|----------------------------------------|
D|---8--8-8--8-8--8-8----10--10-10--10-10--10-10-|----------------------------------------|
A|-8------------------10-------------------------|---8--8-8--8-8--8-8--8-8--8-8--8-8--8-8-|
E|-----------------------------------------------|-8--------------------------------------|

00:32
G|----------------------------------------|--------------------------------------------------------|
D|----------------------------------------|--------------------------------------------------------|
A|---8--8-8--8-8--8-8--8-8--8-8--8-8--8-8-|----10--10-10--10-10--10-10--10-10--10-10--10-10--10-10-|
E|-8--------------------------------------|-10-----------------------------------------------------|


G|-----------------------------------------------|-----------------------------------------------------|
D|---8--8-8--8-8--8-8----10--10-10--10-10--10-10-|----------------------s------------------------------|
A|-8------------------10-------------------------|---8--8-8--8-8--8-8--8\15-15-15--15-15--15-15--15-15-|
E|-----------------------------------------------|-8---------------------------------------------------|


-------------------------------
00:46
CHORUS
*******
G|----------------------------------------|--------------------------------------------------------|
D|----------------------------------------|--------------------------------------------------------|
A|---8--8-8--8-8--8-8--8-8--8-8--8-8--8-8-|----10--10-10--10-10--10-10--10-10--10-10--10-10--10-10-|
E|-8--------------------------------------|-10-----------------------------------------------------|


G|--------------------------------------------------------|--------------------|
D|----10--10-10--10-10--10-10--10-10--10-10--10-10--10-10-|--------------------|
A|-10-----------------------------------------------------|---8--8-8--8-8--8-8-|
E|--------------------------------------------------------|-8------------------|


G|---------------------------------|
D|---------------------------------|
A|---------------------------------|
E|-10-8--8-8-8-8-8-8-8-8-8-8-8-8-8-|

01:01
G|----------------------------------------|--------------------------------------------------------|
D|----------------------------------------|--------------------------------------------------------|
A|---8--8-8--8-8--8-8--8-8--8-8--8-8--8-8-|----10--10-10--10-10--10-10--10-10--10-10--10-10--10-10-|
E|-8--------------------------------------|-10-----------------------------------------------------|


G|--------------------------------------------------------|----------------------------------------|
D|----10--10-10--10-10--10-10--10-10--10-10--10-10--10-10-|----------------------------------------|
A|-10-----------------------------------------------------|---8--8-8--8-8--8-8--8-8--8-8--8-8--8-8-|
E|--------------------------------------------------------|-8--------------------------------------|


-------------------------------
01:16
VERSE 2
********
G|--------------------------------------------------------------------------------|
D|--------------------------------------------------------------------------------|
A|---8--8-8--8-8--8-8--8-8--8-8--8-8--8-8----8--8-8--8-8--8-8--8-8--8-8--8-8--8-8-|
E|-8---------------------------------------8--------------------------------------|


G|--------------------------------------------------------|
D|--------------------------------------------------------|
A|----10--10-10--10-10--10-10--10-10--10-10--10-10--10-10-|
E|-10-----------------------------------------------------|


G|-----------------------------------------------|----------------------------------------|
D|---8--8-8--8-8--8-8----10--10-10--10-10--10-10-|----------------------------------------|
A|-8------------------10-------------------------|---8--8-8--8-8--8-8--8-8--8-8--8-8--8-8-|
E|-----------------------------------------------|-8--------------------------------------|

01:35
G|----------------------------------------|--------------------------------------------------------|
D|----------------------------------------|--------------------------------------------------------|
A|---8--8-8--8-8--8-8--8-8--8-8--8-8--8-8-|----10--10-10--10-10--10-10--10-10--10-10--10-10--10-10-|
E|-8--------------------------------------|-10-----------------------------------------------------|


G|-----------------------------------------------|-----------------------------------------------------|
D|---8--8-8--8-8--8-8----10--10-10--10-10--10-10-|----------------------s------------------------------|
A|-8------------------10-------------------------|---8--8-8--8-8--8-8--8\15-15-15--15-15--15-15--15-15-|
E|-----------------------------------------------|-8---------------------------------------------------|


-------------------------------
01:50
CHORUS
*******
G|----------------------------------------|--------------------------------------------------------|
D|----------------------------------------|--------------------------------------------------------|
A|---8--8-8--8-8--8-8--8-8--8-8--8-8--8-8-|----10--10-10--10-10--10-10--10-10--10-10--10-10--10-10-|
E|-8--------------------------------------|-10-----------------------------------------------------|


G|--------------------------------------------------------|--------------------|
D|----10--10-10--10-10--10-10--10-10--10-10--10-10--10-10-|--------------------|
A|-10-----------------------------------------------------|---8--8-8--8-8--8-8-|
E|--------------------------------------------------------|-8------------------|


G|---------------------------------|
D|---------------------------------|
A|---------------------------------|
E|-10-8--8-8-8-8-8-8-8-8-8-8-8-8-8-|


02:04
G|----------------------------------------|--------------------------------------------------------|
D|----------------------------------------|--------------------------------------------------------|
A|---8--8-8--8-8--8-8--8-8--8-8--8-8--8-8-|----10--10-10--10-10--10-10--10-10--10-10--10-10--10-10-|
E|-8--------------------------------------|-10-----------------------------------------------------|


G|--------------------------------------------------------|----------------------------------------|
D|----10--10-10--10-10--10-10--10-10--10-10--10-10--10-10-|----------------------------------------|
A|-10-----------------------------------------------------|---8--8-8--8-8--8-8--8-8--8-8--8-8--8-8-|
E|--------------------------------------------------------|-8--------------------------------------|



-------------------------------
02:19
No Bass



02:34
CHORUS
*******
G|----------------------------------------|--------------------------------------------------------|
D|----------------------------------------|--------------------------------------------------------|
A|---8--8-8--8-8--8-8--8-8--8-8--8-8--8-8-|----10--10-10--10-10--10-10--10-10--10-10--10-10--10-10-|
E|-8--------------------------------------|-10-----------------------------------------------------|


G|--------------------------------------------------------|--------------------|
D|----10--10-10--10-10--10-10--10-10--10-10--10-10--10-10-|--------------------|
A|-10-----------------------------------------------------|---8--8-8--8-8--8-8-|
E|--------------------------------------------------------|-8------------------|


G|---------------------------------|
D|---------------------------------|
A|---------------------------------|
E|-10-8--8-8-8-8-8-8-8-8-8-8-8-8-8-|


02:49
G|----------------------------------------|--------------------------------------------------------|
D|----------------------------------------|--------------------------------------------------------|
A|---8--8-8--8-8--8-8--8-8--8-8--8-8--8-8-|----10--10-10--10-10--10-10--10-10--10-10--10-10--10-10-|
E|-8--------------------------------------|-10-----------------------------------------------------|

                         Fade Out...............................................................
G|--------------------------------------------------------|----------------------------------------|
D|----10--10-10--10-10--10-10--10-10--10-10--10-10--10-10-|----------------------------------------|
A|-10-----------------------------------------------------|---8--8-8--8-8--8-8--8-8--8-8--8-8--8-8-|
E|--------------------------------------------------------|-8--------------------------------------|



ENJOY..........
Suggest correction
Give kudos to tab author, rate the tab!
1 2 3 4 5
comments
print report bad tab
guest
You may want to rate the tab now too:
select rating
Wanna post a correction for this tab? Suggest correction