Oops, an error
Loading. Please wait.

A Call To Arms Tab

version 1
version 1

Intro

Solo

Whole song

1,882 views 1 this week
no commentswrite comment
1 2 3 4 5
excellent!
x 3
add to favorites
launch autoscroll
font size
0
reset
how to read this tab
guitar tuner
Tab Pro tools
  • play this tab
  • loop segment
  • change instrument
  • show fretboard
  • metronome
Autoscroll
slow
fast
+/-
esc
set tempo
stop
Contributor
Difficulty
advanced
Tabbed by Matt Breton
Note: This song is tabbed in E Standard! Stop whining, it works.
This is pretty fast, but once you get the hang of it, its easy.

                                 [Intro]
e|----------------------------|
B|----------------------------|
G|-9-9---9-9----9-9---/14-14--|         x2
D|-x-x---x-x----x-x-----x--x--|
A|-7-7---7-7----7-7---/12-12--|
E|----------------------------|

                                  [Solo]
e|------------------------------------------5----------------------------|
B|----------------------------------------5-8p5-8p5--5-------------------|
G|----------4h5p4----------------5---5--7b---------7--7p5-7p5--5---------|
D|--5/7-7-7-------7-5/7-7~---5h7---7--------------------------7---7------|
A|-----------------------------------------------------------------------|
E|-----------------------------------------------------------------------|

e|------------------------------4-7-5p4----10-8p7-----12b--12b-----------|
B|-----------------------------5--------5/--------9/--12b--12b-----------|
G|--7*6*5*--------------------5------------------------------------------|
D|--------7*6*5*---------3-4-6-------------------------------------------|
A|--------------5-4-3----------------------------------------------------|
E|--------------------/5-------------------------------------------------|

e|--17p0-0-13p0-0-15p0-0-13p0-0---/555-5--8p7p5--------13p12---12p10-----|
B|---------------------------------------------/10--/15------13----------|
G|-----------------------------------------------------------------------|
D|-----------------------------------------------------------------------|
A|-----------------------------------------------------------------------|
E|-----------------------------------------------------------------------|

e|----10p8----8\5--5---8p7p5-7p5--5--------------------------------------|
B|--12-----10-8\5--5------------8--8p5-8p5--5----------------------------|
G|----------------------------------------8--8p7-8p7p5--5*~--------------|
D|-----------------------------------------------------7-----------------|
A|-----------------------------------------------------------------------|
E|-----------------------------------------------------------------------|

e|-----------------------------------------13b~~~------------------------|
B|--/13-12-10-12-10-12-12-15-13-12-12-12---------------------------------|
G|--/14-13-11-13-11-13-13-16-14-13-13-13---------------------------------|
D|-----------------------------------------------------------------------|
A|-----------------------------------------------------------------------|
E|-----------------------------------------------------------------------|

                                     [/solo]

Legend:
h = hammeron
p = pulloff
/ = slide up
\ = slide down
b = bend
~ = vibrato
* = pinch
comments
We did not receive enough feedback on this tab! Please rate:
print report bad tab
1 2 3 4 5
I want to post or [tab]
guest
You may want to rate the tab now too:
select rating
Please do not post tabs as comments. Select "correction" instead!