Oops, an error
Loading. Please wait.

A Call To Arms Tab

version 1
version 1

Whole song

5,486 views 6 this week
2 commentsread comments
1 2 3 4 5
excellent!
x 5
add to favorites
launch autoscroll
font size
0
reset
how to read this tab
guitar tuner
Tab Pro tools
  • play this tab
  • loop segment
  • change instrument
  • show fretboard
  • metronome
×
Best way to learn
"A Call To Arms"
Autoscroll
slow
fast
+/-
esc
set tempo
stop
Contributor
Bayside – A Call To Arms
I didn't write the exact counts for some of the chord stums but if you listen you can get it.

Intro:
e|-----------------------------------|---------------------------------|
B|-----------------------------------|---------------------------------|
G|-----------------------------------|---------------------------------|
D|---2---2---2---2----2---2---2---2--|---2---2---2---2---2---2---2---2-|
A|-0---0---0---0---------------------|---------------------------------|
E|------------------3---3---3---3----|-2---2---2---2---1---1---1---1---|

e|-----------------------------------|-------------------------|
B|-----------------------------------|-------------------------|
G|-----------------------------------|-----------------2--2----|
D|---2---2---2---2----2---2---2---2--|---2---2---2---2-3--3----|
A|-0---0---0---0---------------------|-----------------3--3----|
E|------------------3---3---3---3----|-2---2---2---2---1--1----|

e|--------------------------------|-------------------------------------|
B|--------------------------------|-------------------------------------|
G|------------5-5--5--------------|-2-2--22--5-5--55--7-7--77--9-9-9-9--|
D|--7-7—-7/5--5-5--5-5--3-3—-3/2--|-2-2--22--5-5--55--7-7--77--9-9-9-9--|
A|--7-7—-7/5--3-3--3-5--3-3—-3/2--|-0-0--00--3-3--33--5-5--55--7-7-7-7--|
E|--5-5--5/3---------3--1-1—-1/0--|-------------------------------------|

Verse:
Guitar 1
e|-----------------------------------|---------------------------------|
B|-----------------------------------|---------------------------------|
G|-----------------------------------|---------------------------------|
D|---2---2---2---2----2---2---2---2--|---2---2---2---2---2---2---2---2-|x2
A|-0---0---0---0---------------------|---------------------------------|
E|------------------3---3---3---3----|-2---2---2---2---1---1---1---1---|

Guitar 2
e|------------------------|--------------------------|
B|------------------------|--------------------------|
G|------------------------|--------------------------|
D|-7-----5-----4-----3----|-7-----5----4----3--------|
A|-7-----5-----4-----3----|-7-----5----4----3--------|
E|-5-----3-----2-----1----|-5-----3----2----1--------|

Pre-Chorus:
Guitar 2
e|--------------------------------------|-------------------------------|
B|--------------------------------------|-------------------------------|
G|-5------7-----------------------------|--5-------7---------9----------|
D|-5------7-------7---------------------|--5-------7---------9----------|
A|-3------5-------7---------------------|--3-------5---------7----------|
E|----------------5---------------------|-------------------------------|

Guitar 1
e|--------------------------------------|------------------------------|
B|--------------------------------------|-------------------5-5-5-5/6\5|
G|-----5-------7-------5----4-5-4-------|--------5-------7-------------|
D|7-7-7---7-7-7---7-7-7---7-------7-5-7-|--7-7-7—--7-7-7----2-2-2-2/3\2|
A|--------------------------------------|------------------------------|
E|--------------------------------------|------------------------------|
Chorus:
Guitar 2
e|------------------|----------------|-------------------|
B|------------------|----------------|-------------------|
G|-2---5------------|--2---5---------|-------------------|
D|-2---5---3--3--2--|--2---5---3---3-|-2--3--5---7-------|
A|-0---3---3--3--2--|--0---3---3---3-|-2--3--5---7-------|
E|---------1--1--0--|----------1---1-|-0--1--3---5-------|

Verse-2:

Pre-Chorus-2:

Chorus-2:
e|------------------|----------------|-------------------------------|
B|------------------|----------------|-------------------------------|
G|-2---5------------|--2---5---------|-------------------------------|
D|-2---5---3--3--2--|--2---5---3---3-|-2--3--5---7---9--10--9---7----|
A|-0---3---3--3--2--|--0---3---3---3-|-2--3--5---7---9--10--9---7----|
E|---------1--1--0--|----------1---1-|-0--1--3---5---7--8---7---5----|

Pre-Solo
e|----------------------------|--------------------------|
B|----------------------------|--------------------------|
G|----------------------------|--------------------------|
D|-77-----55-----44-----33----|-77-----55----44----33----|
A|-77-----55-----44-----33----|-77-----55----44----33----|
E|-55-----33-----22-----11----|-55-----33----22----11----|

Solo: My Props to Matt Breton for figuring this out.
e|------------------------------------------5----------------------------|
B|----------------------------------------5-8p5-8p5--5-------------------|
G|----------4h5p4----------------5---5--7b---------7--7p5-7p5--5---------|
D|--5/7-7-7-------7-5/7-7~---5h7---7--------------------------7---7------|
A|-----------------------------------------------------------------------|
E|-----------------------------------------------------------------------|

e|------------------------------4-7-5p4----10-8p7-----12b--12b-----------|
B|-----------------------------5--------5/--------9/--12b--12b-----------|
G|--7*6*5*--------------------5------------------------------------------|
D|--------7*6*5*---------3-4-6-------------------------------------------|
A|--------------5-4-3----------------------------------------------------|
E|--------------------/5-------------------------------------------------|

e|--17p0-0-13p0-0-15p0-0-13p0-0---/555-5--8p7p5--------13p12---12p10-----|
B|---------------------------------------------/10--/15------13----------|
G|-----------------------------------------------------------------------|
D|-----------------------------------------------------------------------|
A|-----------------------------------------------------------------------|
E|-----------------------------------------------------------------------|

e|----10p8----8\5--5---8p7p5-7p5--5--------------------------------------|
B|--12-----10-8\5--5------------8--8p5-8p5--5----------------------------|
G|----------------------------------------8--8p7-8p7p5--5*~--------------|
D|-----------------------------------------------------7-----------------|
A|-----------------------------------------------------------------------|
E|-----------------------------------------------------------------------|

e|-----------------------------------------13b~~~------------------------|
B|--/13-12-10-12-10-12-12-15-13-12-12-12---------------------------------|
G|--/14-13-11-13-11-13-13-16-14-13-13-13---------------------------------|
D|-----------------------------------------------------------------------|
A|-----------------------------------------------------------------------|
E|-----------------------------------------------------------------------|
                               
Post solo section
e|---------------------------------|------------------------------|
B|---------------------------------|------------------------------|
G|---------------------------------|------------------------------|
D|---------------------------------|------------------2--2---2----|
A|---3---3---3---3---2---2---7---5-|---3---3---3---3--2--2---2----|
E|-1---1---1---3---0---0---5---3---|-1---1---1---3----0--0---0----|

Chorus-3
e|------------------|----------------|---------------------------------|
B|------------------|----------------|---------------------------------|
G|-2---5------------|--2---5---------|---------------------------------|
D|-2---5---3--3--2--|--2---5---3---3-|-2--3--5---7---9--10--9---77--7--|
A|-0---3---3--3--2--|--0---3---3---3-|-2--3--5---7---9--10--9---77--7--|
E|---------1--1--0--|----------1---1-|-0--1--3---5---7--8---7---55--5--|

Any corrections and constructive critisims are more than welcome.
comments
print report bad tab
2 comments total.
0 reply
htv448 wrote on November 2 2009, 09:28 pm

thanks for the recognition bud :)

+1 reply
bebe17 wrote on November 22 2009, 08:46 pm

The Tuning for this is one full step down. It isn't in E Standard

I want to post or [tab]
guest
You may want to rate the tab now too:
select rating
Please do not post tabs as comments. Select "correction" instead!