Oops, an error
Loading. Please wait.

A Synonym For Acquiesce Tab

3,801 views 6 this week
no commentswrite comment
1 2 3 4 5
worth learning
x 4
add to favorites
launch autoscroll
font size
0
reset
how to read this tab
guitar tuner
Tab Pro tools
  • play this tab
  • loop segment
  • change instrument
  • show fretboard
  • metronome
×
Best way to learn
"A Synonym For Acquiesce"
Autoscroll
slow
fast
+/-
esc
set tempo
stop
Contributor
Difficulty
intermediate
----------------------------------------------------------------------------
                       A SYNONYM FOR ACQUIESCE - Bayside
----------------------------------------------------------------------------
Tabbed by: Patrice Naud
Email: drnaud81@hotmail.com

Tuning: 1 whole step down ( DGCFAD )

intro:
guitar 1:                                 guitar 2:
D|---------------------------------------|--------------------------------|
A|---------------------------------------|--------------------------------|
F|------------9-6-7--6-9-6-7-6-----------|------7-------------------------|
C|--7--9-6-7-------------------9-7-------|--7---7-------------------------|
G|---------------------------------------|--7---5-------------------------|
D|---------------------------------------|--5-----------------------------|

verse:
D|------------------------------------------------------------------------|
A|---------------------7--------------------------------------------------|
F|-----6------------7--6--7--9--------------------------------------------|
C|--7----9-7-7h9-7--7--4--7--9--------------------------------------------|
G|--7---------------5-----5--7--------------------------------------------|
D|--5---------------------------------------------------------------------|

solo:
D|------------------------------------------------------------------------|
A|-----------------------------------------------------------10-9-7h9-----|
F|--6h7-6h7-6h7-6---6h7-6-9-7-6---------6-----------------------------10--|
C|----------------7-------------7-7h9-9---9-7-6-7-6-----------------------|
G|--------------------------------------------------7-9-7-9---------------|
D|------------------------------------------------------------------------|

D|---------------------------10-10/12------13-|-5---/9--------------------|
A|-------7-9-10-9-7--10p7-7-------------------|---------------------------|
F|-10-10-------------------------------10-----|----------9--10------------|
C|--------------------------------------------|----------x--x-------------|
G|--------------------------------------------|----------7--8-------------|
D|--------------------------------------------|---------------------------|
** NOTE : don't use your pick for the last part (just fingers) **

chorus:
D|-----------------|------------------------------------------------------|
A|-----------------|------------------5-7---------------------------------|
F|-----------7--7--|------------4-6-7-----6h7p6-4----------7--7-----------|
C|--7--2--4--7--7--|--7--2--4-7-------------------7-4p7-7--7--7-----------|
G|--7--2--4--5--5--|--7--2---------------------------------5--5-----------|
D|--5--0--2--------|--5--0------------------------------------------------|

bridge:
D|--------------|-----------------|---------------------------------------|
A|-----------7--|-----------------|--------5--6--8--10--------------------|
F|-----9--6--6--|-----9--7--6-----|--7--7---------------------------------|
C|--9--9--6--4--|--9--9--7--6--4--|--7------------------------------------|
G|--9--7--4-----|--9--7--5--4--4--|--5------------------------------------|
D|--7-----------|--7-----------2--|---------------------------------------|

last chorus:
D|-----------------|--------------------------------------------|---------|
A|--------7--------|------------------5-7-----------------------|---------|
F|-----9--6--7--7--|-----9------4-6-7-----6h7p6-4----------7--7-|---------|
C|--7--9--4--7--7--|--7--9--4-7-------------------7-4p7-7--7--7-|-7p4--7--|
G|--7--7-----5--5--|--7--7---------------------------------5--5-|------7--|
D|--5--------------|--5-----------------------------------------|------5--|

Listen to the song to know when to play each sections, listen to the rythm and you're set !

| /  slide up
| \  slide down
| h  hammer-on
| p  pull-off
| ~  vibrato
| +  harmonic
| x  Mute note
============================================================================
comments
print report bad tab
I want to post or [tab]
guest
You may want to rate the tab now too:
select rating
Please do not post tabs as comments. Select "correction" instead!