Oops, an error
Loading. Please wait.

A Synonym For Acquisesce Tab

904 views 1 this week
no commentswrite comment
1 2 3 4 5
worth learning
x 1
add to favorites
launch autoscroll
font size
0
reset
how to read this tab
guitar tuner
Tab Pro tools
  • play this tab
  • loop segment
  • change instrument
  • show fretboard
  • metronome
Autoscroll
slow
fast
+/-
esc
set tempo
stop
Contributor
Difficulty
novice
Song: A Synonym For Acquisesce
Atrist: Bayside
Album: Sirens and Condolences
Tuning: Standard
Tabbed by: the mcr freak
KEY:
~  let ring
*  pm
b  bend to
r  release bend to
/  slide to
\  slide down neck
p  pull off
g1 Guitar one - lead
g2 Guitar two - rhythm

Not sure about how I timed everything so listen to the song.

[Intro g1]
e--------------------------------------------------|
B--------------------------------------------------|
G--------------------7---4---5-----4---7-4-7-5-4---|
D-5-----7---4---5----5---5---5-----5---5-5-5-5-5-7-|
A-5-----5---5---5------3---3---333---3--3-3-3-3-3--|x4
E---333---3---3---33-------------------------------|
    ***   *   *   **   *   *   ***   *  * * * *
[Intro g2](Quiet)
e---------|
B---------|
G-----5~--|
D-5~--5~--|
A-5~--3~--|x2
E-3~------|

[Verse g1]
e---------------|---------------------|
B---------------|---------------------|
G---------------|-5-----5---5---5-4---|
D-5-----7---7-5-|-5-----5---5---5-5---|
A-5-----5---5-5-|---333---3---3-------|
E---333---3-----|---------------------|
    ***   *         ***   *   *        
(continued)
|-----------------|---------------------|
|-----------------|---------------------|
|-9-----9---9---9-|-5-----4-5-7---7---7-|
|-9-----9---9---9-|-5-----5-5-7---7---7-|
|---777---7---7---|---333-------5---5---|x2
|-----------------|---------------------|
    ***   *   *       ***       *   *

[No guitar 2]

[Bridge I g1]
e------------------|---------------|-----------------------|
B------------------|---------------|-----------------------|
G-/4-5-4-5-4-5-4---|-4-5-4/7/5-4-5-|-0-2-4-2--2-0----------|
D----------------5-|---------------|--------------4-5-4-2~-|
A------------------|---------------|-----------------------|
E------------------|---------------|-----------------------|
(continued)                        (^Not 100% sure about this section)
e------------|---------------------|-8~-8b10r8----11~-|
B-8-7---7----|------7-8-7------8---|------------------|
G-----9---8~-|-/8-9--------9-----9-|-----------8------|
D------------|---------------------|------------------|
A------------|---------------------|------------------|
E------------|---------------------|------------------|

[g1](Clean)Not exact but...
e---7---------|
B-8-----------|
G-------7-8~--|
D-------------|
A-------------|
E-------------|

[Bridge I g2]
e-------------------|-----------------|----------------|
B-------------------|-----------------|----------------|
G-------------------|-----------------|----------------|
D-------------------|-55-55-5555-5555-|-44-444-44-44-4-|
A-55-555-5-55-55555-|-33-33-3333-3333-|-22-222-22-22-2-|
E-33-333-3-33-33333-|-----------------|----------------|
(continued)
e----------------|-------|
B----------------|-------|
G----------------|-------|
D-99-999-9999999-|-5-5-4-|
A-77-777-7777777-|-3-3-2-|
E----------------|-------|

[g2](Clean)Not exact but...
e----------|
B----------|
G-4-7-5-5~-|
D-5-9-5-6~-|
A----------|
E----------|

Repeat verse

[Chorus g1]
e-------------------------------------------|
B-------------------------------------------|
G-------------------------------------------|
D--------77-777-99-99-9-999-55-555~-55-555\-|
A-55-555-55-555-77-77-7-777-33-333~-33-333\-|
E-33-333------------------------------------|
     ***    ***    **          **      **

[Chorus g2]
e-------------------------------------------|
B-------------------------------------------|
G-------------------------------------------|
D--------77-777-22-22-2-222-55-555~-55-555~-|
A-55-555-55-555-22-22-2-222-33-333~-33-333~-|
E-33-333--------00-00-0-000-----------------|
     ***    ***    **          **      **

Repeat intro a few times
Guitar 1 repeat verse twice
[Verse g2]x2
e-------------------|-------------------|-------------------|
B-------------------|-------------------|-------------------|
G-------------------|-------------------|-------------------|
D-------------------|-55-555-5-55-5-5-5-|-99-999-9-99-9-9-9-|
A-55-555-5-55-5-5-5-|-33-333-3-33-3-3-3-|-77-777-7-77-7-7-7-|
E-33-333-3-33-3-3-3-|-------------------|-------------------|
     ***   **   * *
(continued)
e---------------|
B---------------|
G---------------|
D-55-555-77-777-|
A-33-333-55-555-|
E---------------|

Play chorus x2

g1 (Not sure...)
e----------------|---------------|
B----------------|---------------|
G---4---5----7/9-|-4-5-4---4-----|
D-5---5---5------|-------7---7-5-|
A----------------|---------------|
E----------------|---------------|

[Bridge II](Both guitars)
e-------------|
B-------------|
G----7~----9~-|
D-7~-7~-9~-9~-|
A-7~-5~-9~-7~-|
E-5~----7~----|
Then strum those^ chords a few times

g2 then changes to;
e-----------------------------------|
B-----------------------------------|
G-7/888-8/10101010101010101010--12~-|
D-x-xxx-x-xxxxxxxxxxxxxxxxxxxx--xx--|
A-5/666-6/8-8-8-8-8-8-8-8-8-8---10~-|
E-----------------------------------|

Play chorus 'til and end on (both guitars);
e----|
B----|
G----|
D-5~-|
A-5~-|
E-3~-|
comments
We did not receive enough feedback on this tab! Please rate:
print report bad tab
1 2 3 4 5
I want to post or [tab]
guest
You may want to rate the tab now too:
select rating
Please do not post tabs as comments. Select "correction" instead!