Oops, an error
Loading. Please wait.

Already Gone Chords

version 1
version 1

Acoustic

Whole song

Interactive

3,590 views 9 this week
3 commentsread comments
1 2 3 4 5
please rate
add to favorites
launch autoscroll
font size
0
reset
transpose
0
reset
display chords
guitar tuner
Tab Pro tools
  • play this tab
  • loop segment
  • change instrument
  • show fretboard
  • metronome
×
Best way to learn
"Already Gone"
Autoscroll
slow
fast
+/-
esc
set tempo
stop
Contributor
email me if you have questions :)
Brice Richardson email: ic_c00l@yahoo.com

tuning: standard
capo:4
if you find out the intro riff he does please let me know ive watched his hot 
topic video a thousand times but cant get it.....but as a filler i just play the 
Em C C (up 3) replacing that riff and it still sounds good

Verse: Em C G Em C C (second C slide up 3 frets)

Pre-Chours: Em C Em Bm

Chorus: C, G, Em, G, C, Bm, G, Em, C, G, Em, G, C, Bm, G, Bm, Em


VERSE:
You, you never call
You never write me or nothing
I set myself up to fall
I was stupid then to try

And I’m living a lie
I’m in a fantasy world 
but the hero won't win this time
'Cause a pipe dream gets flushed away

PRE-CHORUS:
By all means I’m getting mad
but that don’t mean I don’t feel sorry for you

CHORUS:
How sad you’re gonna be
I wish I could stick around 
to see your face when you realize you’ve permanently changed
and it’s all thanks to me
I was wrong for coming here
You’ll wake alone and run around your lonely home
Look for my face but I’m already gone

VERSE:
You, you never call
You never write me or nothing
I set myself up to fall
I was stupid then to try

There was something in the way
something in the way
something in the way that you shut the door
I couldn’t get enough, when you’d blow me off 
I just kept dragging myself back for more

PRE-CHORUS:
By all means I’m getting mad
but that don’t mean I don’t feel sorry for you

CHORUS:
How sad you’re gonna be
I wish I could stick around 
to see your face when you realize you’ve permanently changed
and it’s all thanks to me
I was wrong for coming here
You’ll wake alone and run around your lonely home
Look for my face but I’m already gone

P.S im sorry about the random symbols i cant get them to go away
comments
We did not receive enough feedback on this tab! Please rate:
print report bad tab
1 2 3 4 5
3 comments total.
0 reply
adodin wrote on June 28 2012, 10:05 pm

Hey here's the intro riff fairly straightforward. The rhythm is rough and is closer to the rhythm in the electric version. In the acoustic one he plays it syncopated. Also he does strum some of the higher strings to give it more of a chord-y sound. Also the rest seems fairly accurate :) good job

      E  E  E  E  E  E  E  E   
E||--------------------------|
B||--------------------------|
G||--------------------------|
D||--2--2--2--2--2--0--2--2--|
A||--2--2--2--2--2--2--0--5--|
E||--0--0--0--0--0--3--0--0--|

E E E E E E E E
--------------------------|
--------------------------|
--------------------------|
--2--2--2--2--2--2--2--2--|
--0--0--0--0--0--5--2--0--|
--0--0--0--0--0--0--0--0--|

E E E E E E E E
--------------------------|
--------------------------|
--------------------------|
--0--0--0--0--0--0--0--0--|
--2--2--2--2--2--2--0--0--|
--3--3--3--3--3--0--0--3--|

E E E E E E E E
---------------------------||
---------------------------||
--------------------------*||
--2--2--2--2--2--2--2--2--*||
--2--2--2--2--2--2--2--2---||
--0--0--0--0--0--0--0--0---||

E E E E E E E E
--------------------------||
--------------------------||
--------------------------||
--2--2--2--2--2--2--2--2--||
--5--5--5--5--2--2--2--2--||
--0--0--0--0--0--0--0--0--||

0 reply
adodin wrote on June 28 2012, 10:07 pm

Also the little extra bar at the end is an alternate ending that's played instead of the last bar of the riff the 2nd time around (this is also the preverse riff)

0 reply
adodin wrote on June 28 2012, 10:10 pm

I don't know if I can edit comments I just remembered this. In the first verse theres a 3 fret slide up on the g chord as well as the c

I want to post or [tab]
guest
You may want to rate the tab now too:
select rating
Please do not post tabs as comments. Select "correction" instead!