Oops, an error
Loading. Please wait.

Already Gone Chords

version 2
version 2

Acoustic

Whole song

Interactive

3,677 views 24 this week
3 commentsread comments
1 2 3 4 5
accurate
x 4
add to favorites
launch autoscroll
font size
0
reset
transpose
0
reset
display chords
guitar tuner
Autoscroll
slow
fast
+/-
esc
set tempo
stop
Help us to improve Ultimate-Guitar.com Take our survey!
×
Difficulty
Capo
novice
4th fret
Already Gone-Bayside 

CAPO 4th fret

VERSE:

Em
You, you never call
C
You never write me or nothing
G                       Em
I set myself up to fall
Em                               C    C (2 frets up)   C
I was stupid then to try

Em
And Im living a lie
     C
Im in a fantasy world 
     G                                 Em
but the hero wont win this time
Em                                      C       C (2 Frets up)   C
Cause a pipe dream gets flushed away


PRE-CHORUS:

Em                              C
By all means Im getting mad
Em                              Bm     
but that dont mean I dont feel sorry for you

CHORUS:

                           C
How sad youre gonna be
        G                           Em
I wish I could stick around 
     G             C                            Bm           G          Bm
to see your face when you realize youve permanently changed
         C l
and its all thanks to me
   G                             Em
I was wrong for coming here
     G                       C
Youll wake alone and run around your lonely home

    Bm                       G         Bm       Em
Look for my face but Im already gone



VERSE:

Em
You, you never call
C
You never write me or nothing
G                       Em
I set myself up to fall
Em                                     C    C (2 frets up)  C
I was stupid then to try

Em
There was something in the way
 Em
something in the way
C                                               
in the way that you shut the door
Em                                                       Em
I couldnt get enough, when youd blow me off 
Em                       C      C (2 frets up)   C
I just kept dragging myself back for more


PRE-CHORUS:

Em                              C
By all means Im getting mad
Em                              Bm     
but that dont mean I dont feel sorry for you

CHORUS:

                           C
How sad youre gonna be
        G                           Em
I wish I could stick around 
     G             C                            Bm           G          Bm
to see your face when you realize youve permanently changed
         C
and its all thanks to me
   G                             Em
I was wrong for coming here
     G                       C
Youll wake alone and run around your lonely home

    Bm                       G         Bm       C
Look for my face but Im already gone


INTERLUDE

G     Em    G     G#   B    C    G    B    F#   


BRIDGE: 
(all power chords)

 C                         D#/Eb
One day youre going to see
B                         E
The life sentence you gave to me
D        C                                   D#/Eb
But I swear one day we will share this cell
         C                         D#/Eb
I know its cold but I will keep us warm
      B                    E            D
With all the hate I radiate
    C                                      B
We'll be walking hand in hand in hell

CHORUS:

                           C
How sad youre gonna be
        G                           Em
I wish I could stick around 
     G             C                            Bm           G          Bm
to see your face when you realize youve permanently changed
         C
and its all thanks to me
   G                             Em
I was wrong for coming here
     G                       C
Youll wake alone and run around your lonely home

    Bm                    G         Bm       Em
Look for my face but Im already gone
comments
print report bad tab
3 comments total.
0 reply
fender-lespaul 690 wrote on February 28 2014, 11:29 am

This is mostly right but all of the Bm's should be power chords

0 reply
ianredman08 48 wrote on February 12 2015, 01:49 pm

-------------------------------------------------------------------------------
ALREADY GONE ACOUSTIC - Bayside
-------------------------------------------------------------------------------
Tabbed by: Chief Shredman
E-mail: ianredman08@gmail.com

Tuning: D-G#-C#-F#-A#-D#
Capo: 5TH FRET
Yes, I am aware that the videos of Anthony playing this song
show his guitar with a capo on the 6th fret, but you will have to tune your
guitar to D#-G-C-F-A-D. However, the guitar sounds better when it's not tuned
down that low, stick with D-G#-C#-F#-A#-D# and capo on the 5th fret.

D#|-----|-----|-----|-----|--2--|--4--|-----|--5--|--2--|---------------|
A#|-----|--1--|--1--|--3--|--3--|--4--|-----|--6--|--4--|---------------|
F#|-----|--0--|-----|--0--|--4--|--5--|-----|--7--|--4--|---------------|
C#|--2--|--2--|-----|--4--|--4--|--6--|-----|--7--|--4--|---------------|
G#|--2--|--3--|--2--|--5--|--2--|--6--|--2--|--5--|--2--|---------------|
D |--0--|-----|--3--|--0--|-----|--4--|--3--|-----|-----|-C--/Da7--\ C--|
| Em C G Da5 Bm G# F# D5 B /Slide Up/\Slide Down\

INTRO: TWO MEASURES

dudud u dudud dudududu
D#|-------------------|--------------|------------------|
A#|-------------------|--------------|------------------|
F#|-------------------|--------------|------------------|
C#|-22222-2-------222-|2-------------|--------22222222--| (Played once)
G#|-22222-2-----5-----|--5-2-0-22222-|--5-2---22222222--|
D |-00000-0-3-5-------|--------33333-|3-----5-00000000--|

dudud u dudud dudududu
D#|-------------------|--------------|------------------|
A#|-------------------|--------------|------------------|
F#|-------------------|--------------|------------------|
C#|-22222-2-------222-|2-------------|--------22221111--| (Played once)
G#|-22222-2-----5-----|--5-2-0-22222-|--5-2---22222222--|
D |-00000-0-3-5-------|--------33333-|3-----5-00000000--|

-----------------------------------------------------------------
VERSE: CAPO-5TH FRET
(Em-C-G-Em-|-Em-C-Da7-C)x2

Em Em
You, you never call
C
You never write me or nothing
G Em
I set myself up to fall
Em C----/ Da7--\ C--| (Cx4-SL-Da7x2-SL-Cx2)
I was stupid then to try

And I'm living a lie
C
I'm in a fantasy world
G Em
but the hero wont win this time
Em C----/ Da7--\ C--| (Cx4-SL-Da7x2-SL-Cx2)
Cause a pipe dream gets flushed away

-----------------------------------------------------------------------
PRE-CHORUS: (Em-C-Em-Bm)x1
Em C
By all means I'm getting mad
Em Bm
but that don't mean I don't feel sorry for you

----------------------------------------------------------------------
CHORUS: (C-G-Em-G-C-Bm-G-|-Bm-C-G-Em-G-C-Bm-|-G-Bm-Em)x1
C
How sad you're gonna be
G Em
I wish I could stick around
G C Bm G
to see your face when you realize you've permanently changed
Bm C
and it's all thanks to me
G Em
I was wrong for coming here
G C
You'll wake alone and run around your lonely home
Bm G Bm Em
Look for my face but I'm already gone

----------------------------------------------------------------------
VERSE #2:(Em-C-G-Em-|-Em-C-Da7-C)x2
Em Em
You, you never call
C
You never write me or nothing
G Em
I set myself up to fall
Em C----/ Da7--\ C--| (Cx4-SL-Da7x2-SL-Cx2)
I was stupid then to try

There was something in the way
Em
something in the way
C----------/ Da7----\ C--| (Cx4-SL-Da7x2-SL-Cx2)
in the way that you shut the door
Em Em
I couldn't get enough, when you'd blow me off
Em C-------------/ Da7----\ C--| (Cx4-SL-Da7x2-SL-Cx2)
I just kept dragging myself back for more

-------------------------------------------------------------------
PRE-CHORUS: (Em-C-Em-Bm)x1
Em C
By all means I'm getting mad
Em Bm
but that don't mean I don't feel sorry for you

-------------------------------------------------------------------
CHORUS: (C-G-Em-G-C-Bm-G-|-Bm-C-G-Em-G-C-Bm-|-G-Bm-Em)x1
C
How sad you're gonna be
G Em
I wish I could stick around
G C Bm G
to see your face when you realize you've permanently changed
Bm C
and it's all thanks to me
G Em
I was wrong for coming here
G C
You'll wake alone and run around your lonely home
Bm G Bm Em
Look for my face but I'm already gone

-------------------------------------------------------------------
INTERLUDE: P

0 reply
Luca_Diovecchio 11 wrote on March 2 2015, 09:56 pm

Lack of formatting. The formatting of this tab is incorrect. The chords seem to be correct but in relation to the lyrics the placement is confusing.

I want to post or [tab]
guest
You may want to rate the tab now too:
select rating
Please do not post tabs as comments. Select "correction" instead!