Oops, an error
Loading. Please wait.

Beautiful Girls Bass Tab

6,534 views 3 this week
no commentswrite comment
1 2 3 4 5
excellent!
x 4
add to favorites
launch autoscroll
font size
0
reset
guitar tuner
Tab Pro tools
  • play this tab
  • loop segment
  • change instrument
  • show fretboard
  • metronome
×
Best way to learn
"Beautiful Girls"
Autoscroll
slow
fast
+/-
esc
set tempo
stop
Contributor
Bayside
Beautiful girls

G|------------------------------------------------------|
D|------------------------------------------------------|
A|--------------------------5--5-5-7-7------------------|
E|-5--5-02-55-54-22--0-22-2------------02-5--5-5-5--5-5-|

G|------------------------------------------------------------------|
D|------------------------------------------------------------------|
A|---------------------------------55555555-------------------------|
E|-55555555555555552222222222222222--------000000005555555555555555-|

Verse
G|---------------------------------------------6---------------------|
D|-77777777777777774444444444444444-------------976-555555555555555--| X2
A|---------------------------------555555557777----------------------|
E|-------------------------------------------------------------------|

G|-----------------------------------------------------------|
D|-----------------------------------------------------------|
A|---------------------------------55555555------------------|
E|-55555555555555552222222222222222--------00000000555555555-|

You are way too..
G|------------------------------------------------------------------|
D|------------------------------------------------------------------|
A|---------------------------------5555555577777777-----------------|  X2
E|-55555555555555552222222222222222----------------5555555555555555-|

Verse 2
G|----------------------------------------|
D|----------------------------------------|
A|------------------------55-5-77-7-------|
E|-55--5--55--5-22-2-22-2-----------55----|

And then i came out

G|------------------------------------------------------------------|
D|------------------------------------------------------------------|
A|---------------------------------5555555577777777-----------------|
E|-55555555555555552222222222222222----------------5555555555555555-|

G|-----------------------------------------------------------|
D|-----------------------------------------------------------|
A|---------------------------------55555555------------------|
E|-55555555555555552222222222222222--------00000000555555555-|


Chorus
G|------------------------------------------------------------------|
D|------------------------------------------------------------------|
A|---------------------------------5555555577777777-----------------|  X2
E|-55555555555555552222222222222222----------------5555555555555555-|

G|------------------------------------------------------|
D|------------------------------------------------------|
A|----------------------------5-------------------------|
E|-5-----------2------------------------0------------5--|

G|------------------------------------------------------------------|
D|------------------------------------------------------------------|
A|---------------------------------5555555577777777-----------------|
E|-55555555555555552222222222222222----------------5555555555555555-|


G|----------------------------|
D|---------------4----------7-|
A|-----------------7--5--7----|
E|-5------5-4-2---------------|


G|-------------------------------|
D|-------------------------------|
A|---------------------55--77----|
E|-5--55----5-4-2-22-2--------55-|
comments
print report bad tab
I want to post or [tab]
guest
You may want to rate the tab now too:
select rating
Please do not post tabs as comments. Select "correction" instead!