Oops, an error
Loading. Please wait.

Big Cheese Tab

16 views 3 this week
no commentswrite comment
1 2 3 4 5
3 more votes to show rating
add to favorites
launch autoscroll
font size
0
reset
how to read this tab
guitar tuner
Autoscroll
slow
fast
+/-
esc
set tempo
stop
Help us to improve Ultimate-Guitar.com Take our survey!
×
Author
Difficulty
Tuning
intermediate
D G C F A D
About this tab version
Never saw a tab for the solo on here, so here is an attempt at it. Was this info helpful? Yes No
Part 1 - All fingertapping
 
[Solo]   
D|---------------------------------------------------------------------------|
A|--12-8-5-0-5-8-12-8-5-0-5-8-12-8-5-0-8-5-7-0-5-7-8-7-10-7-4-7-10-----------|
F|---------------------------------------------------------------------------|
C|---------------------------------------------------------------------------| x2
G|---------------------------------------------------------------------------|
D|---------------------------------------------------------------------------|

D|---------------------------------------------------------------------------|
A|--12-8-5-0-5-8-12-8-5-0-5-8-12-8-5-0-8-5-7-0-5-7-8-7-10-7-5-7-10-----------|
F|---------------------------------------------------------------------------|
C|---------------------------------------------------------------------------|
G|---------------------------------------------------------------------------|
D|---------------------------------------------------------------------------|


Part 2 - with pick (the 10's are tens)
D|--1010-00-99-00-88-00-77-00------------------------------------------------|
A|----------------------------0/0--0-/0--0--(17)\----------------------------|
F|----------------------------9/11-12/14-16--21-\----------------------------|
C|---------------------------------------------------------------------------|
G|---------------------------------------------------------------------------|
D|---------------------------------------------------------------------------|


************************************

| /   Slide up
| \   Slide down
| () Alternate note

************************************
Suggest correction
Give kudos to tab author, rate the tab!
1 2 3 4 5
comments
print report bad tab
guest
You may want to rate the tab now too:
select rating
Wanna post a correction for this tab? Suggest correction