Oops, an error
Loading. Please wait.

Blame It On Bad Luck Tab

version 1
version 1

Whole song

Interactive

23,840 views 6 this week
4 commentsread comments
1 2 3 4 5
accurate
x 5
add to favorites
launch autoscroll
font size
0
reset
how to read this tab
guitar tuner
Tab Pro tools
  • play this tab
  • loop segment
  • change instrument
  • show fretboard
  • metronome
×
Best way to learn
"Blame It On Bad Luck"
Autoscroll
slow
fast
+/-
esc
set tempo
stop
Contributor
Difficulty
novice
Blame It On Bad Luck
Music: Bayside
Album: Bayside (2005)
Tab By: reizig@gmail.com

It's wrong in a lot of places, but better than nothing.

Intro
   B5                    B5
e|-------------0----------------|
B|---------------3--------------|
G|-4---------------2-----4------|
D|-4---------------------4------|
A|-2---------------------2------|
E|------------------------------|

Verse
   B5  E5  F#5     x4
e|-----------------|
B|-----------------|
G|-4---------------|
D|-4---2---4-------|
A|-2---2---4-------|
E|-----0---2-------|

Chorus (Repeated twice)
   B5            A5    G5            F#5
e|-----------------------------------------|
B|-----------------------------------------|
G|-4-4-4-4-4-4---2-2-----------------------|
D|-4-4-4-4-4-4---2-2---5-5-5-5-5-5---4-4---|
A|-2-2-2-2-2-2---0-0---5-5-5-5-5-5---4-4---|
E|---------------------3-3-3-3-3-3---2-2---|

   E5            G5    F#5           A5      
e|-------------------------------------------|
B|-------------------------------------------|  Final A5 played
G|-----------------------------------2-2-2---|    on first repeat
D|-2-2-2-2-2-2---5-5---4-4-4-4-4-4---2-2-2---|      only
A|-2-2-2-2-2-2---5-5---4-4-4-4-4-4---0-0-0---|
E|-0-0-0-0-0-0---3-3---2-2-2-2-2-2-----------|


Chorus Ending 1 
   G5  A5
e|-------------|
B|-------------|
G|-------------|
D|-5---7-7-7---|
A|-5---7-7-7---|
E|-3---5-5-5---|
   (Say a hard life did this to me...)
   
Solo   
                                                       x2
e|-----------------------------------------------------|
B|-----------------------------------------------------|
G|----4-2-----4----------------------------------------|
D|--------4/5----4h5-4-2-0--------2---4----------------|
A|-2-----------------------2--------2----------3-2-0---|
E|-----------------------------0---------0-2-0---------|

Interlude
                                                               x2
e|-------------------------------------------------------------|
B|-------------------------------------------------------------|
G|-------------------------------------------------------------|
D|---4------4------4------4-----4----8------8------8------8----|
A|-2---2--2---2--2---2--2----4-----6---6--6---6--6---6--6---6--|
E|-------------------------------------------------------------|

Bridge
  Part 1 (repeat twice)
   G5        D5        F#5       A5  B5       
e|----------------------------------------|
B|----------------------------------------|
G|-----------7-7-7-7-------------2-2-4-4--|
D|-5-5-5-5---7-7-7-7---4-4-4-4---2-2-4-4--|
A|-5-5-5-5---5-5-5-5---4-4-4-4---0-0-2-2--|
E|-3-3-3-3-------------2-2-2-2------------|

   G5        D5        F#5                
e|----------------------------------------|
B|----------------------------------------|
G|-----------7-7-7-7----------------------|
D|-5-5-5-5---7-7-7-7---4-4-4-4-4-4-4-4----|
A|-5-5-5-5---5-5-5-5---4-4-4-4-4-4-4-4----|
E|-3-3-3-3-------------2-2-2-2-2-2-2-2----| 

  Part 2
   G5  A5  F#5  B5    G5  A5         
e|--------------------------------|
B|--------------------------------|
G|--------------------------------|
D|-5---7---4^---9-----5---7-7-7---|
A|-5---7---4^---9-----5---7-7-7---|
E|-3---5---2^---7-----3---5-5-5---|


Order:
Intro
Verse
Chorus
Solo
Verse
Chorus w/ Ending 1
Interlude
Bridge
Chorus w/ Ending 1
comments
print report bad tab
4 comments total. Showing first comments.
0 reply
SDVolcomRider wrote on April 9 2006, 12:05 am

The second G5 in the chorus should be an F5 I believe

0 reply
I P1ay LeAd wrote on April 10 2006, 10:09 pm

wow,

needs some work...

0 reply
anticky wrote on February 10 2007, 05:58 am

...

I want to post or [tab]
guest
You may want to rate the tab now too:
select rating
Please do not post tabs as comments. Select "correction" instead!