Oops, an error
Loading. Please wait.

Blame It On Bad Luck Tab

version 2
version 2

Whole song

Interactive

26,234 views 6 this week
1 commentread comment
1 2 3 4 5
accurate
x 9
add to favorites
launch autoscroll
font size
0
reset
how to read this tab
guitar tuner
Tab Pro tools
  • play this tab
  • loop segment
  • change instrument
  • show fretboard
  • metronome
×
Best way to learn
"Blame It On Bad Luck"
Autoscroll
slow
fast
+/-
esc
set tempo
stop
Contributor
Difficulty
intermediate
----------------------------------------------------------------------------
                         BLAME IT ON BAD LUCK - Bayside
----------------------------------------------------------------------------
Tabbed by: Patrice Naud
Email: drnaud81@hotmail.com

Tuning: 1 whole step down ( DGCFAD )

intro/chorus (guitar 1):
D|------------------------------------------------------------------------|
A|------------------------------------------------------------------------|
F|--6--4-2-------------4--------------------------------------------------|
C|--6--4-2--6--4--5-6--4--------------------------------------------------|
G|--4--2-0--6--4--5-6--2--------------------------------------------------|
D|----------4--2--3-4-----------------------------------------------------|

verse:
D|------------------------------------------------------------------------|
A|------------------------------------------------------------------------|
F|--6---------------------------------------------------------------------|
C|--6--4--6---------------------------------------------------------------|
G|--4--4--6---------------------------------------------------------------|
D|-----2--4---------------------------------------------------------------|

chorus for guitar 2 / End of chorus:
D|---------------------------|--------------------------------------------|
A|--------5--7--9--5--9------|--------------------------------------------|
F|--6--8-----------------5---|--2--4--5-----------------------------------|
C|---------------------------|--2--4--5-----------------------------------|
G|---------------------------|--0--2--3-----------------------------------|
D|---------------------------|--------------------------------------------|

first bridge:
D|------------------------------------------------------------------------|
A|------------------------------------------------------------------------|
F|----6p4-----6-----------------------------------------------------------|
C|--------5p6---6-7-6-4--------2---4---2p1--------------------------------|
G|--4-------------------7-4----------------2------------------------------|
D|---------------------------2---2---4------------------------------------|

second bridge:
D|--------------------------------4-----4-----4-----4---------------------|
A|------------------------0---0-2---2-2---2-2---2-2---2-------------------|
F|----1-----1-----1---1-1---1---------------------------------------------|
C|--2---2-2---2-2---2-----------------------------------------------------|
G|------------------------------------------------------------------------|
D|------------------------------------------------------------------------|

D|--------------------------|---------------------------------------------|
A|--------------------------|---------------------------------------------|
F|-2--------6--4--2---------|--2--4--5--6---2--4-4-5----------------------|
C|-2--2--6--6--4--2--2--6---|--2--4--5--6---2--4-4-5----------------------|
G|-0--2--6--4--2--0--2--6---|--0--2--3--4---0--2-2-3----------------------|
D|----0--4-----------0--4---|---------------------------------------------|

Listen to the song to know when to play each sections, listen to the rythm and you're set !

| /  slide up
| \  slide down
| h  hammer-on
| p  pull-off
| ~  vibrato
| +  harmonic
| x  Mute note
============================================================================
comments
print report bad tab
1 comment total.
0 reply
fender-lespaul wrote on July 9 2010, 09:18 am

Great tab. Spot on

I want to post or [tab]
guest
You may want to rate the tab now too:
select rating
Please do not post tabs as comments. Select "correction" instead!