Oops, an error
Loading. Please wait.

Blame It On Bad Luck Tab

version 3
version 3

Whole song

Interactive

7,023 views 1 this week
2 commentsread comments
1 2 3 4 5
accurate
x 3
add to favorites
launch autoscroll
font size
0
reset
how to read this tab
guitar tuner
Tab Pro tools
  • play this tab
  • loop segment
  • change instrument
  • show fretboard
  • metronome
×
Best way to learn
"Blame It On Bad Luck"
Autoscroll
slow
fast
+/-
esc
set tempo
stop
Difficulty
intermediate
This is the way I play the song, and I think this is the way to play it!

Normal tuning!

Intro:
e:-2-----3-----0-----2-----|
H:-4-----3-----0-----2-----|
G:-4-----4-----1-----3-----|
D:-4-----5-----2-----4-----|   x2
A:-2---0-5-----2-----4---0-|
E:-2-----3---2-0---1-2-----|

Verse:
e:-2----2----0----2--|
H:-4----4----0----2--|
G:-4----4----1----3--| Play this all the time
D:-4----4----2----4--|
A:-2----2----2----4--|
E:-2----2----0----2--|

You can also put in this:
wishing I could see something through clear eyes
D:-4-4-4-6-7-6-9-119-9-9-9-4-4-4-4-|
A:-2-4-2-4-5-4-9-9-7-7-7-7-4-4-4-4-|
E:-2-2-2-4-5-4-7-9-7-7-7-7-2-2-2-2-|

Chorus:
e:-2---0-3---2-0---1-2---0-|
H:-4---2-3---2-0---1-2---2-|
G:-4---2-4---3-1---2-3---2-|   x2
D:-4---2-5---4-2---3-4---2-|
A:-2---0-5---4-2---3-4---0-|
E:-2---0-3---2-0---1-2---0-|

End the chorus after the second verse like this:
And I'll shake responsibility | And say a hard life did this to me.
      e:-2-------------5------|-----5---------------7--------(2)--|
      H:-2-------------5------|-----7---------------9--------(2)--|
      G:-3-------------6------|-----7---------------9--------(3)--|
      D:-4-------------7------|-----7---------------9--------(4)--|
      A:-4-------------7------|-----5---------------7--------(4)--|
      E:-2-------------5------|-----5---------------7--------(2)--|


A 2nd giutar can play the chorus like this:
e:-2---4-5---7-9---5-9---5-2-|
H:-4---6-7---9-11--7-11--5-4-|
G:-4---6-7---9-11--7-11--6-4-| x2
D:-4---6-7---9-11--7-11--7-4-|
A:-2---4-5---7-9---5-9---7-2-|
E:-2---4-5---7-9---5-9---5-2-|

First bridge:
e:-----------|-------------|---------------|-----------|
H:-----------|-------------|---------------|-----------|
G:-----------|-------------|---------------|-----------|  x2
D:-9-7-----9-|-------------|-----------4---|-----------|
A:-----8-9---|-9-10-9-7----|-------5-7-----|---5-4-----|
E:-----------|----------10-|-7-7-7-------5-|-5-----5-7-|

Second bridge:
e:---------------------------------------------------------------|
H:---------------------------------------------------------------|
G:-----------------------------------11------11------11------11--|
D:---4-------4-------4---4---8---8-9---9---9---9---9---9---9---9-|  x2
A:-5---5---5---5---5---5---9---9---------------------------------|
E:---------------------------------------------------------------|


Now I realize...
e:-3---5---2---2-5-3---5---2-|
H:-3---7---2---4-5-3---5---2-|
G:-4---7---3---4-6-4---7---3-|   x2
D:-5---7---4---4-7-5---7---4-|
A:-5---5---4---2-7-5---5---4-|
E:-3---5---2---2-5-3---5---2-|

And it change my...
e:-3---5---6---7---|
H:-3---5---6---7---|
G:-4---6---7---8---|  x2
D:-5---7---8---9---|
A:-5---7---8---9---|
E:-3---5---6---7---|


More or less right...
Any questions send them to me: half-star@hotmail.com
comments
We did not receive enough feedback on this tab! Please rate:
print report bad tab
1 2 3 4 5
2 comments total.
0 reply
shugo449 wrote on January 2 2007, 08:47 am

i think yours is the onlt right one
only one problem

You can also put in this:
wishing I could see something through clear eyes
D:-4-4-4-6-7-6-9-119-9-9-9-4-4-4-4-|
A:-x-x-x-x-x-x-x-x-x-x-x-x-x-x-x-x-|
E:-2-2-2-4-5-4-7-9-7-7-7-7-2-2-2-2-|

0 reply
shugo449 wrote on January 2 2007, 08:47 am

thats how it should be

I want to post or [tab]
guest
You may want to rate the tab now too:
select rating
Please do not post tabs as comments. Select "correction" instead!