Oops, an error
Loading. Please wait.

Blame It On Bad Luck Tab

version 4
version 4

Whole song

Interactive

by Bayside
28,835 views 18 this week
5 commentsread comments
1 2 3 4 5
x 9
add to favorites
launch autoscroll
font size
0
reset
how to read this tab
guitar tuner
×
Best way to learn
"Blame It On Bad Luck"
Autoscroll
slow
fast
+/-
esc
set tempo
stop
Author
Difficulty
intermediate
The tabs for this song were good but they were all missing some stuff. This is my first tab so be nice

Standard Tuning

Intro (clean)

e:2-----------|-------------|---------------|-----------|
H:x-----------|-------------|---------------|-----------|
G:4-----------|-------------|---------------|-----------|  
D:4-----------|-------------|---------------|-----------|
A:2-----------|-------------|---------------|-----------|
E:------------|-------------|---------------|-----------|
Pound my knuckles hard against the floor

e:------------|-------------|---------------|2-----------|
H:------------|-------------|---------------|-3----------|
G:------------|-------------|---------------|--4---------|  x2
D:------------|-------------|---------------|------------|
A:------------|-------------|---------------|------------|
E:------------|-------------|---------------|------------|
With my head against the wall but I did this to my.....


e:2-----------|-------------|---------------|-----------|
H:x-----------|-------------|---------------|-----------|
G:4-----------|-------------|---------------|-----------|  x2
D:4-----------|-------------|---------------|-----------|
A:2-----------|-------------|---------------|-----------|
E:------------|-------------|---------------|-----------|
Assume it's just not worth getting back up

Play this before the intro

e:------------|-------------|---------------|-----------|
H:------------|-------------|---------------|-----------|
G:------------|4-4-4-4------|---------------|-----------|
D:4-4-4-4-----|4-4-4-4------|---------------|-----------|
A:2-2-2-2-----|2-2-2-4------|---------------|-----------|
E:------------|-------------|---------------|-----------|
pm- - - -
Verse:

Both guitars play this:

e:------------|-------------|---------------|-----------|
H:------------|-------------|---------------|-----------|
G:4-4-4-4-----|4-4-4-4------|---------------|-----------|
D:4-4-4-4-----|4-4-4-4------|2-2-2-2--------|4-4-4-4----|x 4
A:2-2-2-2-----|2-2-2-4------|2-2-2-2--------|4-4-4-4----|
E:------------|-------------|0-0-0-0--------|2-2-2-2----|

You can play this for the clear eyes part:
e:------------|-------------|------|
H:------------|-------------|------|
G:------------|-------------|------|
D:-4-4-4-6-7-6-9-119-9-9-9-4-4-4-4-|
A:-x-x-x-x-x-x-x-x-x-x-x-x-x-x-x-x-|
E:-2-2-2-4-5-4-7-9-7-7-7-7-2-2-2-2-|

Chorus:
e:------------|----------------|---------------|------------|
H:------------|----------------|---------------|------------|
G:------------|----------------|---------------|------------|
D:444444444444|2222------------|---------------|------------|
A:222222222222|0000555555555555|444422222222222|555544444444|x2
E:------------|----333333333333|222200000000000|333322222222|

e:------------|
H:------------|
G:------------|
D:77777777----|
A:55555555----|

or

e:------------|----------------|----------------|------------|------------|
H:------------|----------------|----------------|------------|------------|
G:444444444444|6666777777777777|9999111111111111|777711111111|77777777----|
D:xxxxxxxxxxxx|xxxxxxxxxxxxxxxx|xxxxxxxxxxxxxxxx|xxxxxxxxxxxx|xxxxxxxx----|
A:222222222222|4444555555555555|7777999999999999|555599999999|55555555----|
E:------------|----------------|----------------|------------|------------|

Play this after the chorus

e:------------|----------------|---------------|------------|
H:------------|----------------|---------------|------------|
G:---4-2------|----------------|---------------|------------|
D:-------4h5--|5-4-2-0---------|--2---4--------|------------|x2
A:2-----------|--------2-------|----2----------|----5-2-----|
E:------------|----------------|0--------------|2--------5--|

Verse:

e:------------|-------------|---------------|-----------|
H:------------|-------------|---------------|-----------|
G:4-4-4-4-----|4-4-4-4------|---------------|-----------|
D:4-4-4-4-----|4-4-4-4------|2-2-2-2--------|4-4-4-4----|x 4
A:2-2-2-2-----|2-2-2-4------|2-2-2-2--------|4-4-4-4----|
E:------------|-------------|0-0-0-0--------|2-2-2-2----|

e:------------|----------------|---------------|------------|
H:------------|----------------|---------------|------------|
G:------------|----------------|---------------|------------|
D:444444444444|2222------------|---------------|------------|x2
A:222222222222|0000555555555555|444422222222222|555544444444|
E:------------|----333333333333|222200000000000|333322222222|

e:------------|
H:------------|
G:------------|
D:77777777----|
A:55555555----|

or

e:------------|----------------|----------------|------------|------------|
H:------------|----------------|----------------|------------|------------|
G:444444444444|6666777777777777|9999111111111111|777711111111|77777777----|
D:xxxxxxxxxxxx|xxxxxxxxxxxxxxxx|xxxxxxxxxxxxxxxx|xxxxxxxxxxxx|xxxxxxxx----|
A:222222222222|4444555555555555|7777999999999999|555599999999|55555555----|
E:------------|----------------|----------------|------------|------------|

Then play

e:------------|
H:------------|
G:------------|
D:5-7-7-8-----|
A:3-5-5-6-----|
pm  x x x

Interlude:
e:---------------------------------------------------------------|
H:---------------------------------------------------------------|
G:-----------------------------------11------11------11------11--|
D:---4-------4-------4---4---8---8-9---9---9---9---9---9---9---9-|  x2
A:-5---5---5---5---5---5---9---9---------------------------------|
E:---------------------------------------------------------------|

Bridge:
e|----------------------------------------|
B|----------------------------------------|
G|----------------------------------------|
D|-----------7-7-7-7-------------4-4-2-2--|
A|-5-5-5-5---5-5-5-5---4-4-4-4---2-2-0-0--|
E|-3-3-3-3-------------2-2-2-2------------|
                                           x2
e|----------------------------------------|
B|----------------------------------------|
G|----------------------------------------|
D|-----------7-7-7-7----------------------|
A|-5-5-5-5---5-5-5-5---4-4-4-4-4-4-4-4----|
E|-3-3-3-3-------------2-2-2-2-2-2-2-2----|

or

e:---------------------------|
H:---------------------------|
G:---------------------------|   x2
D:---------------------------|
A:-5---5---4---2-7-5---5---4-|
E:-3---5---2---2-5-3---5---2-|

then for the last one play

e|--------------------------------|
B|--------------------------------|
G|--------------------------------|
D|--------------------------------|
A|-5---7----4---9-----5---7-7-8---|
E|-3---5----2---7-----3---5-5-6---|

or

e:-----------------|
H:-----------------|
G:-----------------|  x2
D:-----------------|
A:-5---7---8---9---|
E:-3---5---6---7---|

Chorus:
e:------------|----------------|---------------|------------|
H:------------|----------------|---------------|------------|
G:------------|----------------|---------------|------------|
D:444444444444|2222------------|---------------|------------|
A:222222222222|0000555555555555|444422222222222|555544444444|x2
E:------------|----333333333333|222200000000000|333322222222|

e:------------|
H:------------|
G:------------|
D:77777777----|
A:55555555----|

or

e:------------|----------------|----------------|------------|------------|
H:------------|----------------|----------------|------------|------------|
G:444444444444|6666777777777777|9999111111111111|777711111111|77777777----|
D:xxxxxxxxxxxx|xxxxxxxxxxxxxxxx|xxxxxxxxxxxxxxxx|xxxxxxxxxxxx|xxxxxxxx----|
A:222222222222|4444555555555555|7777999999999999|555599999999|55555555----|
E:------------|----------------|----------------|------------|------------|

Then slide down....
       
Suggest correction
comments
print report bad tab
5 comments total. Showing first comments.
0 reply
bebe17 10 Jan 16, 2008 12:02 PM

kind of confusing
but it is right

-1 reply
Slick_KH 50 Apr 01, 2009 03:13 PM

I think this part goes like this

Play this after the chorus

e:------------|----------------|---------------|------------|
H:------------|----------------|---------------|------------|
G:---4-2------|5---------------|---------------|------------|
D:-------4h5--|-4-5-2----------|--2---4--------|------------|x2
A:2-----------|----------------|----2----------|----5-4-----|
E:------------|----------------|0--------------|2--------5--|

-1 reply
Rampy 123 Apr 20, 2009 08:00 PM

Try...

e:------------|----------------|---------------|------------|
H:------------|----------------|---------------|------------|
G:---4p2------|4---------------|---------------|------------|
D:-------4h5--|-5-5-4-4-0------|--2---4--------|------------|x2
A:2-----------|-----------2----|----2----------|----55-4----|
E:------------|----------------|0--------------|22--------5-|

Might not be exactley right but it sounds good.

guest
You may want to rate the tab now too:
select rating
Wanna post a correction for this tab? Suggest correction