Oops, an error
Loading. Please wait.

Boy Tab

version 1
version 1

Whole song

Interactive

6,080 views 6 this week
1 commentread comment
1 2 3 4 5
x 3
add to favorites
launch autoscroll
font size
0
reset
how to read this tab
guitar tuner
Autoscroll
slow
fast
+/-
esc
set tempo
stop
Help us to improve Ultimate-Guitar.com Take our survey!
×
Author
Artist: Bayside
Songe: Boy
Album: Shudder
Tuning: Whole Step Down (DGCFAD)

Guitar 1: Anthony Raneri

Intro:
e |----------------------------------------------------| x2
B |--666-------------666-------------------------------|
G |--777-(0)-666-----777-(0)-666--77777777-66666666----|
D |--777-(0)-777-(0)-777-(0)-777--88888888-77777777----|
A |--555-(0)-777-(0)-555-(0)-777--88888888-77777777----|
E |----------555-(0)---------555--66666666-55555555----|


Verse:
e |-----------------------------------| x2
B |-----------------------------------|
G |--7-77-7--7-77-7-------------------|
D |--7-77-7--7-77-7--8-88-8--7-77-7---|
A |--5-55-5--5-55-5--8-88-8--7-77-7---|
E |------------------6-66-6--5-55-5---|
  He can't make sense of this.....

Intro: x1
Verse: x2

Pre Chorus:
e |---------------------------------------------------|
B |---------------------------------------------------|
G |---------------------------------------------------|
D |-----------------------77--------------7-7-xx-7----|
A |-----55-77-88-55-77-88-------55-77-8^--7-7-xx-7----|
E |--66----------------------66-----------5-5-xx-5----|

Chorus:
e |--------------| x2
B |--------------|
G |-----2--3-----|
D |--3--2--3--3--|
A |--3--0--1--3--|
E |--1--------1--|
  Now is your chance boy.....

e |----------------------------------------| x2
B |----------------------------------------|
G |--777-333-555-777-333-777-555-----------|
D |--777-333-555-777-333-777-555-333-------|
A |--555-111-333-555-111-555-333-333-------|
E |------------------------------111-------|
  Go on give up......

Intro: x2
Verse: x2
Pre Chorus: x1
Chorus

Post Chorus part before Bridge:
e |------------|
B |------------|
G |--3--5--55--|
D |--3--5--55--|
A |--1--3--33--|
E |------------|
  So go on give up.....

Bridge:
e |---------------------------------------|
B |---------------------------------------|
G |--33333333-66666666-777777777777-5555--|
D |--33333333-66666666-777777777777-5555--|
A |--11111111-44444444-555555555555-3333--|
E |---------------------------------------|
  Oh, what a mistake.....

e |------------------------------------------------------|
B |------------------------------------------------------|
G |--33333333-66666666-101010101010101010101010101010----|
D |--33333333-66666666-101010101010101010101010101010----|
A |--11111111-44444444-8-8-8-8-8-8-8-8-8-8-8-8-8-8-8-----|
E |------------------------------------------------------|
  Just stands on a stage.....

e |-------------------------------------------------------|
B |-------------------------------------------------------|
G |--33333333-66666666--2-5-7--3333333333333333--3-6-5-3--|
D |--33333333-66666666--2-5-7--3333333333333333--3-6-5-3--|
A |--11111111-44444444--0-3-5--1111111111111111--1-4-3-1--|
E |-------------------------------------------------------|
  But he drops to his knees....

Build Up:
e |------------------------------------------------------------|
B |------------------------------------------------------------|
G |----2-3-----2-3---------------------------------------------|
D |--3-2-3-3-3-2-3-3--7777-3333-5555-7777-3333-7777-5555-3333--|
A |--3-0-1-3-3-0-1-3--5555-1111-3333-5555-1111-5555-3333-3333--|
E |--1-----1-1-----1-------------------------------------1111--|
                    pm**** **** **** **** **** **** **** ****

e |-------------------------------------------|
B |-------------------------------------------|
G |---------------------------7777-5555-------|
D |--7777-3333-5555-7777-3333-7777-5555-3333--|
A |--5555-1111-3333-5555-1111-5555-3333-3333--|
E |-------------------------------------1111--|
   pm**** **** **** **** ****

Chorus: x4
End on F

I haven't worked out Jacks parts yet.
Suggest correction
Give kudos to tab author, rate the tab!
1 2 3 4 5
comments
print report bad tab
1 comment total.
0 reply
bebe17 10 Jun 18, 2009 01:51 AM

awwww i was looking for jacks part =[
but this is pretty good

guest
You may want to rate the tab now too:
select rating
Wanna post a correction for this tab? Suggest correction