Oops, an error
Loading. Please wait.

Carry On Bass Tab

version 1
version 1

Whole song

2,713 views 1 this week
1 commentread comment
1 2 3 4 5
x 4
add to favorites
launch autoscroll
font size
0
reset
guitar tuner
Autoscroll
slow
fast
+/-
esc
set tempo
stop
Help us to improve Ultimate-Guitar.com Take our survey!
×
Author
Difficulty
Tuning
intermediate
D A D G B E
G---------------------------------------------------------------------------|
D---------------1-3-1-111/666666-555555555----------X2----------------------|
A--3-33-33-3-3-----------------------------1-1-2222-X2----------------------|
D---------------------------------------------------------------------------|

G----------------------------------------------------------------------------|
D-------------------------------------------10-------------------------------|
A--333-3-3333-3--------------------10-13-10----10-888-8-865------------------|
D---------------0-111-1-111/-13-15--------------------------5-55-666-6-6-111-|

G---------------------------------------------------------------------------|
D---------------------------------------------------------------------------|
A------111-1-1--------------------------------------------------------------|
D--1-1---------55555--------------------------------------------------------|

ChorusX2
G---------------------------5---5---5---------------------------------------|
D---------------------------------------------------------------------------|
A---------------------33333--33--33--333------------------------------------|
D--33333333-6666-8888-------------------------------------------------------|

G---------------------------------------------------------------------------|
D-----------------------5-3-6-5-3-------------------------------------------|
A---------333333------------------6-------- 66666666------------------------|
D--666666--------555555-------------66666666---------88888888---------------|

G---------------------------------------------------------------------------|
D---------1-0---------------------------------------------------------------|
A--33-1-3-----3-1-----------------------------------------------------------|
D-----------------11111-33333-5---------------------------------------------|

G---------------------------------------------------------------------------|
D---------------1-3-1-111/666666-555555555----------X2----------------------|
A--3-33-33-3-3-----------------------------1-1-2222-X2----------------------|
D---------------------------------------------------------------------------|

G----------------------------------------------------------------------------|
D-------------------------------------------10-------------------------------|
A--333-3-3333-3--------------------10-13-10----10-888-8-865------------------|
D---------------0-111-1-111/-13-15--------------------------5-55-666-6-6-111-|

G---------------------------------------------------------------------------|
D---------------------------------------------------------------------------|
A------111-1-1--------------------------------------------------------------|
D--1-1---------55555--------------------------------------------------------|

ChorusX2
G---------------------------5---5---5---------------------------------------|
D---------------------------------------------------------------------------|
A---------------------33333--33--33--333------------------------------------|
D--33333333-6666-8888-------------------------------------------------------|

G---------------------------------------------------------------------------|
D-----------------------5-3-6-5-3-------------------------------------------|
A---------333333------------------6-------- 66666666------------------------|
D--666666--------555555-------------66666666---------88888888---------------|

G---------------------------------------------------------------------------|
D---------1-0---------------------------------------------------------------|
A--33-1-3-----3-1-----------------------------------------------------------|
D-----------------1-3-5-----------------------------------------------------|


G---------------------------------------------------------------------------|
D---------------------------------------------------------------------------|
A---------------------------------------------------------------------------|
D--6-6-6-6/10-10-10-10/13-13-13-13-8-8-9-9-66666655/10-10-10-10-10-10-10-10-|

G---------------------------------------------------------------------------|
D---------------------------------------------------------------------------|
A---------------------------------------------------------------------------|
D-13-13-13-13-13-13-13-13-88889999--66-6655-10-10-10-10-10-10-13-13-13-13-8-|

G----------------------------------------------------------------------------|
D----------------------------------------------------------------------------|
A------------------------------------------------------------333333/15-15-15-|
D-8-88-999--66-6655-10-10-10-10-10-10-13-13-13-13-8-8-88-999-----------------|

G---------------------------------------------------------------------------|
D---------------------------------------------------------------------------|
A-15-15-15------------------------------------------------------------------|
D---------------------------------------------------------------------------|

G---------------------------------------------------------------------------|
D-----------------------5-3-6-5-3-------------------------------------------|
A---------333333------------------6-------- 66666666------------------------|
D--666666--------555555-------------66666666---------88888888---------------|

G---------------------------------------------------------------------------|
D---------1-0---------------------------------------------------------------|
A--33-1-3-----3-1-----------------------------------------------------------|
D-----------------11111-33333-55555555--------------------------------------|

G----------------------------------------------------------------------------|
D----------------------------------------------------------------------------|
A-----------------33333--33--33--333---------------33333--33--33-333-------3-|
D--3333-3-666-888-------------------3333-3-666-888--------------------3-6-8--|

This should all be good, except for the chorus instead of 3 on the A he hits a low C 
i didnt feel like tuning my bass to so i just brought it up the octave, sounds fine, thats 
then pretty easy song. Good one too.
Suggest correction
comments
print report bad tab
1 comment total.
0 reply
paulisusingthis 564 Jan 10, 2008 12:54 AM

awesome dude

but now u hav to do a gtr tab for it :)

guest
You may want to rate the tab now too:
select rating
Wanna post a correction for this tab? Suggest correction