Oops, an error
Loading. Please wait.

Carry On Tab

version 1
version 1

Whole song

5,039 views 1 this week
3 commentsread comments
1 2 3 4 5
accurate
x 4
add to favorites
launch autoscroll
font size
0
reset
how to read this tab
guitar tuner
Autoscroll
slow
fast
+/-
esc
set tempo
stop
Help us to improve Ultimate-Guitar.com Take our survey!
×
Author
Difficulty
Tuning
tysonboy 116
intermediate
C G C F A D
-------------------------------------------------------------------------------
                             Carry On - Bayside
-------------------------------------------------------------------------------
Tabbed by: Tysonboy
Email: SEFreezeLax13@aim.com

Tuning: Drop C

Intro

|-----------------------------------------------------------|
|-----------------------------------------------------------|
|--7-77-77-7-x-x-10-12-10--10-10-x-x-1515-15-15-14~--5-5-6~-|
|------------x-x-----------------x-x------------------------| Repeat once
|--5-55-55-5-x-x--8-10--8---8--8-x-x-1313-13-13-12~--3-3-4~-|
|-----------------------------------------------------------|

Second time only

|------------|
|------------|
|-7-7-7~\\\--|
|------------|
|-5-5-5~\\\--|
|------------|

On the verse play the not but instead of repeating it, toggle the rhythm/treble switch. 
strum. Just push your fingers on the neck. I watched Jack O'Shea play it like that in 
Notes probably are not 100% though.

Verse

|--------------------------------|
|--------------------------------|
|--------------------------66666-|
|--------------------------------|
|--------------------------44444-|
|-10~-12~-7~-8~-10~-8~-10~-------|
  (....quietly......)

Pre-Chorus
                                                       Second time
|-------------------------------------------|         |---------|
|-------------------------------------------|         |---------|
|-------------------------------------------|         |---------|
|--55555555-8888-10101010-0000000000000000--| Twice   |--x-x-x--|
|--55555555-8888-10101010-0000000000000000--|         |--x-x-x--|
|--55555555-8888-10101010-0000000000000000--|         |--x-x-x--|

Chorus

|-----------------------------------------------------------------|
|-----------------------------------------------------10-8-6/\----|
|----------------7-77-77-77-77------------------------------------|
|--8-88-88-88-88---------------10-1010-1010-1010-1010-------------|
|--8-88-88-88-88-5-55-55-55-55-10-1010-1010-1010-1010-------------|
|--8-88-88-88-88---------------10-1010-1010-1010-1010-------------|

|----------------------------------------------------------------------|
|----------------------------------------------------------------------|
|----------------7-77-77-77-77------------------------7-7-7-10-9-7-6---|
|--8-88-88-88-88---------------10-1010-1010-1010-1010------------------|
|--8-88-88-88-88-5-55-55-55-55-10-1010-1010-1010-1010------------------|
|--8-88-88-88-88---------------10-1010-1010-1010-1010------------------|

|----------------------------------------------|
|----------------------------------------------|
|----------------------------------------------|
|--3-33-33-33-33--5-55-55-55-55--7-77-77-77-77-|
|--3-33-33-33-33--5-55-55-55-55--7-77-77-77-77-|
|--3-33-33-33-33--5-55-55-55-55--7-77-77-77-77-|

Verse

|-----------------------------------------------------------|
|-----------------------------------------------------------|
|--7-77-77-7-x-x-10-12-10--10-10-x-x-1515-15-15-14~--5-5-6~-|
|------------x-x-----------------x-x------------------------| Repeat once
|--5-55-55-5-x-x--8-10--8---8--8-x-x-1313-13-13-12~--3-3-4~-|
|-----------------------------------------------------------|

|----------------------------------------------------------------------|
|----------------------------------------------------------------------|
|-7-7-7-x-7--7--7-7-7-x-7--7/10-10-10-x-10--10-10-10-x-10-10--9-9-9----|
|-------x-------------x---------------x--------------x-----------------|
|-5-5-5-x-5--5--5-5-5-x-5--5/8--8--8--x--8---8--8--8-x--8--8--7-7-7----|
|----------------------------------------------------------------------|

|-------------------------------------------------------------------------|
|-------------------------------------------------------------------------|
|-9-9-7-10--10-10-12-12-12--12-12-9-9-9-9-9-10-10-10-10-10--66666---------|
|-------------------------------------------------------------------------|
|-7-7-5--8---8--8-10-10-10--10-10-7-7-7-7-7--8--8--8--8--8--44444---------|
|-------------------------------------------------------------------------|

Pre-Chorus
                                                       Second time
|-------------------------------------------|         |---------|
|-------------------------------------------|         |---------|
|-------------------------------------------|         |---------|
|--55555555-8888-10101010-0000000000000000--| Twice   |--x-x-x--|
|--55555555-8888-10101010-0000000000000000--|         |--x-x-x--|
|--55555555-8888-10101010-0000000000000000--|         |--x-x-x--|

Chorus

|-----------------------------------------------------------------|
|-----------------------------------------------------10-8-6/\----|
|----------------7-77-77-77-77------------------------------------|
|--8-88-88-88-88---------------10-1010-1010-1010-1010-------------|
|--8-88-88-88-88-5-55-55-55-55-10-1010-1010-1010-1010-------------|
|--8-88-88-88-88---------------10-1010-1010-1010-1010-------------|

|----------------------------------------------------------------------|
|----------------------------------------------------------------------|
|----------------7-77-77-77-77------------------------7-7-7-10-9-7-6---|
|--8-88-88-88-88---------------10-1010-1010-1010-1010------------------|
|--8-88-88-88-88-5-55-55-55-55-10-1010-1010-1010-1010------------------|
|--8-88-88-88-88---------------10-1010-1010-1010-1010------------------|

|------------|
|------------|
|------------|
|--3~-5~-7~--|
|--3~-5~-7~--|
|--3~-5~-7~--|

Interlude

Don't play first time through. Just drums and bass play.

|-----------------------------------------------|
|-----------------------------------------------|
|------------7-7--7-7--10-10--10-10--5-5--6-6---|
|--8-8--8-8-------------------------------------| Two times
|--8-8--8-8--5-5--5-5---8--8---8--8--3-3--4-4---|
|--8-8--8-8-------------------------------------|

|---------------------------|
|---------------------------|
|--7-7-7-77-7-7-7-x-x-x-x---|
|-----------------x-x-x-x---|
|--5-5-5-55-5-5-5-x-x-x-x---|
|---------------------------|

Chorus

|-----------------------------------------------------------------|
|-----------------------------------------------------10-8-6/\----|
|----------------7-77-77-77-77------------------------------------|
|--8-88-88-88-88---------------10-1010-1010-1010-1010-------------|
|--8-88-88-88-88-5-55-55-55-55-10-1010-1010-1010-1010-------------|
|--8-88-88-88-88---------------10-1010-1010-1010-1010-------------|

|----------------------------------------------------------------------|
|----------------------------------------------------------------------|
|----------------7-77-77-77-77------------------------7-7-7-10-9-7-6---|
|--8-88-88-88-88---------------10-1010-1010-1010-1010------------------|
|--8-88-88-88-88-5-55-55-55-55-10-1010-1010-1010-1010------------------|
|--8-88-88-88-88---------------10-1010-1010-1010-1010------------------|

|----------------------------------------------|
|----------------------------------------------|
|----------------------------------------------|
|--3-33-33-33-33--5-55-55-55-55--7-77-77-77-77-|
|--3-33-33-33-33--5-55-55-55-55--7-77-77-77-77-|
|--3-33-33-33-33--5-55-55-55-55--7-77-77-77-77-|

Outro

|--------------------------------------|
|--------------------------------------|
|--------------------------------------|
|--5-5-5-5-8-8-10-10--000-000-000-000--| Twice
|--5-5-5-5-8-8-10-10--000-000-000-000--|
|--5-5-5-5-8-8-10-10--000-000-000-000--|

|--------------|
|--------------|
|--------------|
|-5~-8~-10~-0~-|
|-5~-8~-10~-0~-|
|-5~-8~-10~-0~-|


| /  slide up
| \  slide down
| h  hammer-on
| p  pull-off
| ~  vibrato
| +  harmonic
| x  Mute note
===============================================================================
Suggest correction
What's this?
You can suggest a correction to this tab. Community and Mods will review your correction and vote to approve or reject it.
comments
print report bad tab
3 comments total.
-1 reply
MoTTKidd 20 wrote on July 8 2008, 04:08 am

um this is wrong and I hate you and i don't even play guitar and the part where it says no guitar there is clearly GUITAR YOU CHILD

+2 reply
tysonboy 116 wrote on July 11 2008, 02:38 am

dude... chill out... don't have a hissy fit because you don't agree with what someone says. i'm a child? grow up...

0 reply
MoTTKidd 20 wrote on September 2 2008, 03:34 pm

I was just kidding relax and there is guitar there by the way.

guest
You may want to rate the tab now too:
select rating
Please do not post tabs as comments. Select "correction" instead!