Oops, an error
Loading. Please wait.

Carry On Bass Tab

version 2
version 2

Whole song

587 views 3 this week
no commentswrite comment
1 2 3 4 5
please rate
add to favorites
launch autoscroll
font size
0
reset
guitar tuner
Autoscroll
slow
fast
+/-
esc
set tempo
stop
Help us to improve Ultimate-Guitar.com Take our survey!
×
Author
Song:Carry On
Band:Bayside
Song played in:Drop C


Intro

F---------------------------------------------------------------------------|
C---------------------------------------------------------------------------|
G-5-555-5-5-55-5--8-888-8-8-88-8--1313131313131212121212121212--3-3-4-44-444|
C---------------------------------------------------------------------------|
x1

F---------------------------------------------------------------------------|
C---------------------------------------------------------------------------|
G-5-555-5-5-55-5--88-77-5-77-88--1313131313131212121212121212--3-3-4-44-444-|
C---------------------------------------------------------------------------|
x1

Verse

F---------------------------------------------------------------------------|
C---------------------------------7-10-7------------------------------------|
G-555-5-5-555-55--888-8-8-888-8-10-------101010-10-10-8-7-------------------|
C---------------5-----------------------------------------7-77-888-8-8-10-8-|

Verse Cont.

F-------------------------|
C-------------------------|
G-------333-3-3-----------|
C-3--3-3--------7777~-----| x1

Chorus

F---------------------------------------------|
C---------------------------------------------|
G---------------------------------------------|
C-55555555-8888-10101010-0000000000000000-----| x2

Cont.

F---------------------------------------------------|
C---------------------------------------------------|
G-------------5555-55-555---------------------------|
C-8888-88-888------------7777-77-777-7777-77-777----|

F---------------------------------------------------------------|
C---------------------------------------------------------------|
G---------------8888-88-888---------------------5555-55-555-----|
C-8888-88-888---------------10101010-1010-101010----------------|

F---------------------------------------------------|
C---------------------------------------------------|
G---------------------------------------------------|
C-3333-33-333-5555-55-555-7777-77-777-7777-77-777---|x1


Intro

F---------------------------------------------------------------------------|
C---------------------------------------------------------------------------|
G-5-555-5-5-55-5--8-888-8-8-88-8--1313131313131212121212121212--3-3-4-44-444|
C---------------------------------------------------------------------------|
x1

F---------------------------------------------------------------------------|
C---------------------------------------------------------------------------|
G-5-555-5-5-55-5--88-77-5-77-88--1313131313131212121212121212--3-3-4-44-444-|
C---------------------------------------------------------------------------|
x1

Verse

F---------------------------------------------------------------------------|
C---------------------------------7-10-7------------------------------------|
G-555-5-5-555-55--888-8-8-888-8-10-------101010-10-10-8-7-------------------|
C---------------5-----------------------------------------7-77-888-8-8-10-8-|

Verse Cont.

F-------------------------|
C-------------------------|
G-------333-3-3-----------|
C-3--3-3--------7777~-----| x1


Chorus

F---------------------------------------------|
C---------------------------------------------|
G---------------------------------------------|
C-55555555-8888-10101010-0000000000000000-----| x2

Cont.

F---------------------------------------------------|
C---------------------------------------------------|
G-------------5555-55-555---------------------------|
C-8888-88-888------------7777-77-777-7777-77-777----|

F---------------------------------------------------------------|
C---------------------------------------------------------------|
G---------------8888-88-888---------------------5555-55-555-----|
C-8888-88-888---------------10101010-1010-101010----------------|

F---------------|
C---------------|
G---------------|
C-3~-5~-7~~-----|x1

Bridge

F----------------------------------|
C----------------------------------|
G--------5-5-5-5-8-8-8-8-3-3-4-4---|
C-8-8-8-8--------------------------|x1

F-----------------------------------------|
C-----------------------------------------|
G-----------55-5-555-88-8-888-333-444-----|
C-88-8-88-77------------------------------|x2

End of bridge

F------------------------------|
C------------------------------|
G-5-555-5-5-555/1717171717-----|
C------------------------------|x1

Cont. chorus

F---------------------------------------------------|
C---------------------------------------------------|
G-------------5555-55-555---------------------------|
C-8888-88-888------------7777-77-777-7777-77-777----|

F---------------------------------------------------------------|
C---------------------------------------------------------------|
G---------------8888-88-888---------------------5555-55-555-----|
C-8888-88-888---------------10101010-1010-101010----------------|

F---------------------------------------------------|
C---------------------------------------------------|
G---------------------------------------------------|
C-3333-33-333-5555-55-555-7777-77-777-7777-77-777---|x1


Last chrous

F------------------------------------------|
C------------------------------------------|
G------------------------------------------|
C-55-5-555-888-101010-00-0-000-00-0-000----|x2

Outro

F-----------------|
C-----------------|
G-----------------|
C-5~-8-10-0~~-----|x1




Suggest correction
Give kudos to tab author, rate the tab!
1 2 3 4 5
comments
print report bad tab
guest
You may want to rate the tab now too:
select rating
Please do not post tabs as comments. Select "correction" instead!