Oops, an error
Loading. Please wait.

Carry On Tab

version 2
version 2

Whole song

4,702 views 1 this week
2 commentsread comments
1 2 3 4 5
accurate
x 3
add to favorites
launch autoscroll
font size
0
reset
how to read this tab
guitar tuner
Autoscroll
slow
fast
+/-
esc
set tempo
stop
Help us to improve Ultimate-Guitar.com Take our survey!
×
   “Carry On”
    Bayside

INTRO

E------------------------------------------------|
B------------------------------------------------|
G-5-5-5--5-5-8-8-8--8-8-13-13-12-12--------------|
D-5-5-5--5-5-8-8-8--8-8-XX-XX-XX-XX--8-8-9-9-9-9-|
A-3-3-3--3-3-6-6-6--6-6-11-11-10-10--8-8-9-9-9-9-|
D------------------------------------8-8-9-9-9-9-|

VERSE 1

“Don’t confuse neediness for love”

E-------------------------------------------|
B-------------------------------------------|
G-5-5-5-----5-5-5-5-5-5-----5-5-5-8-8-8-----|
D-5-5-5-X-X-3-3-3-3-3-3-X-X-3-3-3-8-8-8-X-X-|
A-3-3-3-X-X-3-3-3-3-3-3-X-X-3-3-3-6-6-6-X-X-|
D-------X-X-------------X-X-------------X-X-|

E---------------------------------------------|
B---------------------------------------------|
G-8-8-8-8-8-8-----8-8-8-----------------------|
D-6-6-6-6-6-6-X-X-8-8-8-3-3-3-X-X-3-3-3-5-5-5-|
A-6-6-6-6-6-6-X-X-6-6-6-3-3-3-X-X-3-3-3-5-5-5-|
D-------------X-X-------3-3-3-X-X-3-3-3-5-5-5-|

E-------------------------------------------|
B-------------------------------------------|
G-------------------------------------------|
D-X-X-5-X-5-6-6-6-X-X-6-X-6-6-6-6-X-X-6-X-6-|
A-X-X-5-X-5-6-6-6-X-X-6-X-6-6-6-6-X-X-6-X-6-|
D-X-X-5-X-5-6-6-6-X-X-6-X-6-6-6-6-X-X-6-X-6-|

E---------------------------|
B---------------------------|
G---------------------------|
D-8-8-8-X-X-8-8-8-9-9-9-9-9-|
A-8-8-8-X-X-8-8-8-9-9-9-9-9-|
D-8-8-8-X-X-8-8-8-9-9-9-9-9-|

CHORUS

“Carry On”

E---------------------------------|
B---------------------------------|
G---------------------------------|
D-3-3-3-3-3-3-3-3-6-6-6-6-8-8-8-8-|
A-3-3-3-3-3-3-3-3-6-6-6-6-8-8-8-8-|
D-3-3-3-3-3-3-3-3-6-6-6-6-8-8-8-8-|
E---------------------------------|
B---------------------------------|
G-5-5-5-5-5-5-5-5-5-5-5-5-5-5-5-5-|
D-5-5-5-5-5-5-5-5-5-5-5-5-5-5-5-5-|
A-3-3-3-3-3-3-3-3-3-3-3-3-3-3-3-3-|
D---------------------------------|

INTERLUDE

“Hey, Hey, I’ve got things to say.”

E---------------------------------|
B---------------------------------|
G---------------------------------|
D-6-6-6-6-6-6-6-6-5-5-5-5-5-5-5-5-|
A-6-6-6-6-6-6-6-6-3-3-3-3-3-3-3-3-|
D-6-6-6-6-6-6-6-6-----------------|

E---------------------------------|
B---------------------------------|
G---------------------------------|
D-5-5-5-5-5-5-5-5-5-5-5-5-5-5-5-5-|
A-5-5-5-5-5-5-5-5-5-5-5-5-5-5-5-5-|
D-5-5-5-5-5-5-5-5-5-5-5-5-5-5-5-5-|

E---------------------------------|
B---------------------------------|
G-----------------8-8-8-8-8-8-8-8-|
D-6-6-6-6-6-6-6-6-8-8-8-8-8-8-8-8-|
A-6-6-6-6-6-6-6-6-6-6-6-6-6-6-6-6-|
D-6-6-6-6-6-6-6-6-----------------|

E---------------------------------|
B---------------------------------|
G---------------------------------|
D-8-8-8-8-8-8-8-8-5-5-5-5-5-5-5-5-|
A-8-8-8-8-8-8-8-8-3-3-3-3-3-3-3-3-|
D-8-8-8-8-8-8-8-8-----------------|

E---------------------------------|
B---------------------------------|
G-8-8-8-8-8-8-8-8-----------------|
D-8-8-8-8-8-8-8-8-3-3-3-3-3-3-3-3-|
A-6-6-6-6-6-6-6-6-3-3-3-3-3-3-3-3-|
D-----------------3-3-3-3-3-3-3-3-|

E---------------------------------|
B---------------------------------|
G---------------------------------|
D-5-5-5-5-5-5-5-5-5-5-5-5-5-5-5-5-|
A-5-5-5-5-5-5-5-5-5-5-5-5-5-5-5-5-|
D-5-5-5-5-5-5-5-5-5-5-5-5-5-5-5-5-|

INTRO

E------------------------------------------------|
B------------------------------------------------|
G-5-5-5--5-5-8-8-8--8-8-13-13-12-12--------------|
D-5-5-5--5-5-8-8-8--8-8-XX-XX-XX-XX--8-8-9-9-9-9-|
A-3-3-3--3-3-6-6-6--6-6-11-11-10-10--8-8-9-9-9-9-|
D------------------------------------8-8-9-9-9-9-|

VERSE 2

“And I’ll follow you around”

E-------------------------------------------|
B-------------------------------------------|
G-5-5-5-----5-5-5-5-5-5-----5-5-5-8-8-8-----|
D-5-5-5-X-X-3-3-3-3-3-3-X-X-3-3-3-8-8-8-X-X-|
A-3-3-3-X-X-3-3-3-3-3-3-X-X-3-3-3-6-6-6-X-X-|
D-------X-X-------------X-X-------------X-X-|

E---------------------------------------------|
B---------------------------------------------|
G-8-8-8-8-8-8-----8-8-8-----------------------|
D-6-6-6-6-6-6-X-X-8-8-8-3-3-3-X-X-3-3-3-5-5-5-|
A-6-6-6-6-6-6-X-X-6-6-6-3-3-3-X-X-3-3-3-5-5-5-|
D-------------X-X-------3-3-3-X-X-3-3-3-5-5-5-|

E-------------------------------------------|
B-------------------------------------------|
G-------------------------------------------|
D-X-X-5-X-5-6-6-6-X-X-6-X-6-6-6-6-X-X-6-X-6-|
A-X-X-5-X-5-6-6-6-X-X-6-X-6-6-6-6-X-X-6-X-6-|
D-X-X-5-X-5-6-6-6-X-X-6-X-6-6-6-6-X-X-6-X-6-|

E---------------------------|
B---------------------------|
G---------------------------|
D-8-8-8-X-X-8-8-8-9-9-9-9-9-|
A-8-8-8-X-X-8-8-8-9-9-9-9-9-|
D-8-8-8-X-X-8-8-8-9-9-9-9-9-|

CHORUS

“Carry On”

E---------------------------------|
B---------------------------------|
G---------------------------------|
D-3-3-3-3-3-3-3-3-6-6-6-6-8-8-8-8-|
A-3-3-3-3-3-3-3-3-6-6-6-6-8-8-8-8-|
D-3-3-3-3-3-3-3-3-6-6-6-6-8-8-8-8-|

E---------------------------------|
B---------------------------------|
G-5-5-5-5-5-5-5-5-5-5-5-5-5-5-5-5-|
D-5-5-5-5-5-5-5-5-5-5-5-5-5-5-5-5-|
A-3-3-3-3-3-3-3-3-3-3-3-3-3-3-3-3-|
D---------------------------------|

INTERLUDE

“Hey, Hey, I’ve got things to say.”

E---------------------------------|
B---------------------------------|
G---------------------------------|
D-6-6-6-6-6-6-6-6-5-5-5-5-5-5-5-5-|
A-6-6-6-6-6-6-6-6-3-3-3-3-3-3-3-3-|
D-6-6-6-6-6-6-6-6-----------------|

E---------------------------------|
B---------------------------------|
G---------------------------------|
D-5-5-5-5-5-5-5-5-5-5-5-5-5-5-5-5-|
A-5-5-5-5-5-5-5-5-5-5-5-5-5-5-5-5-|
D-5-5-5-5-5-5-5-5-5-5-5-5-5-5-5-5-|

E---------------------------------|
B---------------------------------|
G-----------------8-8-8-8-8-8-8-8-|
D-6-6-6-6-6-6-6-6-8-8-8-8-8-8-8-8-|
A-6-6-6-6-6-6-6-6-6-6-6-6-6-6-6-6-|
D-6-6-6-6-6-6-6-6-----------------|

E---------------------------------|
B---------------------------------|
G---------------------------------|
D-8-8-8-8-8-8-8-8-5-5-5-5-5-5-5-5-|
A-8-8-8-8-8-8-8-8-3-3-3-3-3-3-3-3-|
D-8-8-8-8-8-8-8-8-----------------|

E---------------------------------|
B---------------------------------|
G-8-8-8-8-8-8-8-8-----------------|
D-8-8-8-8-8-8-8-8-3-3-3-3-3-3-3-3-|
A-6-6-6-6-6-6-6-6-3-3-3-3-3-3-3-3-|
D-----------------3-3-3-3-3-3-3-3-|

E---------------------------------|
B---------------------------------|
G---------------------------------|
D-5-5-5-5-5-5-5-5-5-5-5-5-5-5-5-5-|
A-5-5-5-5-5-5-5-5-5-5-5-5-5-5-5-5-|
D-5-5-5-5-5-5-5-5-5-5-5-5-5-5-5-5-|

BREAKDOWN

"I just can't handle this."

E----------------------------------------|
B----------------------------------------|
G----------------------------------------|
D----------------------------------------|
A-----------------------------6--6--6--6-|
D-6--6--6--6--10--10--10--10-------------|

E------------|
B------------|
G------------|
D------------|
A------------|
D-8--8--9--9-|

E------------------------------------------------------|
B------------------------------------------------------|
G------------------------------------------------------|
D------------------------------------------------------|
A--------------------------------------6-6-6-6-6-6-6-6-|
D-6-6-6-6-6-6-6-6-10-10-10-10-10-10-10-----------------|

E-----------------|
B-----------------|
G-----------------|
D-----------------|
A-----------------|
D-8-8-8-8-9-9-9-9-|

E-----------------------------------|
B-----------------------------------|
G-----------------------------------|
D-6-6--6-6-6--6-10-10--10-10-10--10-|
A-6-6--6-6-6--6-10-10--10-10-10--10-|
D-6-6--6-6-6--6-10-10--10-10-10--10-|

E-----------------------------|
B-----------------------------|
G-----------------------------|
D-8-8--8-8-8--8-7-7--7-8-8--8-|
A-6-6--6-6-6--6-7-7--7-8-8--8-|
D---------------7-7--7-8-8--8-|

E-----------------------------------|
B-----------------------------------|
G-----------------------------------|
D-6-6--6-6-6--6-10-10--10-10-10--10-|
A-6-6--6-6-6--6-10-10--10-10-10--10-|
D-6-6--6-6-6--6-10-10--10-10-10--10-|

E-----------------------------|
B-----------------------------|
G-----------------------------|
D-8-8--8-8-8--8-7-7--7-8-8--8-|
A-6-6--6-6-6--6-7-7--7-8-8--8-|
D---------------7-7--7-8-8--8-|

E---------------------------------|
B---------------------------------|
G---------------------------------|
D-9-9-9-9-9-9-9-9-9-9-9-9-X-X-X-X-|
A-9-9-9-9-9-9-9-9-9-9-9-9-X-X-X-X-|
D-9-9-9-9-9-9-9-9-9-9-9-9-X-X-X-X-|

INTERLUDE

“Hey, Hey, I’ve got things to say.”

E---------------------------------|
B---------------------------------|
G---------------------------------|
D-6-6-6-6-6-6-6-6-5-5-5-5-5-5-5-5-|
A-6-6-6-6-6-6-6-6-3-3-3-3-3-3-3-3-|
D-6-6-6-6-6-6-6-6-----------------|

E---------------------------------|
B---------------------------------|
G---------------------------------|
D-5-5-5-5-5-5-5-5-5-5-5-5-5-5-5-5-|
A-5-5-5-5-5-5-5-5-5-5-5-5-5-5-5-5-|
D-5-5-5-5-5-5-5-5-5-5-5-5-5-5-5-5-|

E---------------------------------|
B---------------------------------|
G-----------------8-8-8-8-8-8-8-8-|
D-6-6-6-6-6-6-6-6-8-8-8-8-8-8-8-8-|
A-6-6-6-6-6-6-6-6-6-6-6-6-6-6-6-6-|
D-6-6-6-6-6-6-6-6-----------------|

E---------------------------------|
B---------------------------------|
G---------------------------------|
D-8-8-8-8-8-8-8-8-5-5-5-5-5-5-5-5-|
A-8-8-8-8-8-8-8-8-3-3-3-3-3-3-3-3-|
D-8-8-8-8-8-8-8-8-----------------|

E---------------------------------|
B---------------------------------|
G-8-8-8-8-8-8-8-8-----------------|
D-8-8-8-8-8-8-8-8-3-3-3-3-3-3-3-3-|
A-6-6-6-6-6-6-6-6-3-3-3-3-3-3-3-3-|
D-----------------3-3-3-3-3-3-3-3-|

E---------------------------------|
B---------------------------------|
G---------------------------------|
D-5-5-5-5-5-5-5-5-5-5-5-5-5-5-5-5-|
A-5-5-5-5-5-5-5-5-5-5-5-5-5-5-5-5-|
D-5-5-5-5-5-5-5-5-5-5-5-5-5-5-5-5-|

CHORUS

“Carry On”

E---------------------------------|
B---------------------------------|
G---------------------------------|
D-3-3-3-3-3-3-3-3-6-6-6-6-8-8-8-8-|
A-3-3-3-3-3-3-3-3-6-6-6-6-8-8-8-8-|
D-3-3-3-3-3-3-3-3-6-6-6-6-8-8-8-8-|

E---------------------------------|
B---------------------------------|
G-5-5-5-5-5-5-5-5-5-5-5-5-5-5-5-5-|
D-5-5-5-5-5-5-5-5-5-5-5-5-5-5-5-5-|
A-3-3-3-3-3-3-3-3-3-3-3-3-3-3-3-3-|
D---------------------------------|

E--------------|
B--------------|
G------------5-|
D-3----6--8--5-|
A-3----6--8--3-|
D-3----6--8----|
Suggest correction
Give kudos to tab author, rate the tab!
1 2 3 4 5
comments
print report bad tab
2 comments total.
0 reply
Sarah&Colour 10 wrote on February 3 2009, 12:58 am

Good tab but the song is in Drop C I believe.

+1 reply
xBRMx 10 wrote on February 17 2009, 12:05 am

yep. its in Drop C. love this song. good job on the tab.

guest
You may want to rate the tab now too:
select rating
Please do not post tabs as comments. Select "correction" instead!