Oops, an error
Loading. Please wait.

Choice Hops And Bottled Self Esteem Tab

version 1
version 1

Solo

Whole song

Interactive

2,664 views 1 this week
3 commentsread comments
1 2 3 4 5
worth learning
x 4
add to favorites
launch autoscroll
font size
0
reset
how to read this tab
guitar tuner
Tab Pro tools
  • play this tab
  • loop segment
  • change instrument
  • show fretboard
  • metronome
Autoscroll
slow
fast
+/-
esc
set tempo
stop
Contributor
Difficulty
advanced
Choice Hops and Bottled Self-Esteem by Bayside


Tabbed by: Ryan Buchanan (Buca-man)
Email: letsgobosox1804@yahoo.com

Tuning: EADGBE (Standard)

e|-------------------------------------------------------------13-13-11-------|
B|-9h11h13p11p9--------------------------11--11h13h14p12p11------------13-11--|
G|-------------10h12h13p12p10--12--13--12--13--------------13-----------------|
D|---------------------------10--10--10----------------------10---------------|
A|----------------------------------------------------------------------------|
E|----------------------------------------------------------------------------|

e|---------------------------------------------------------------------------------------|
B|---------------------------8h10p8------------------------------------------------------|
G|13-10-13-10--------10h11------10h11p10p8------------13p12p10(alot)---------------------|
D|-----------11-10-10----------------------11-10-8-6-------------------------- ----------|
A|-----------x--x--10----------------------x--x--x-x-------------------------------------|
E|-----------9--8--8-----------------------9--8--6-4-------------------------------------|

e|-------------------------------------------------11p9p8(x4)-13p11p9(x3)--|
B|-13p11p9--------------------------14p13p11(x4)---------------------------|
G|--------13p12p10---------------------------------------------------------|
D|----------------13p11p10-------------------------------------------------|
A|------------------------13p11p10-----------------------------------------|
E|--------------------------------13---------------------------------------|

e|-----------13-15-13h15h16-15p13---------------------------------------|
B|-------------------------------13-14p13----13-------------------------|
G|-13-12-10-8----------------------------10----16-13-14p13--------------|
D|-x--x--x--x------------------------------13-------------13p12---------|
A|-11-10-8--6--------------------------------------------------13p11----|
E|------------------------------------------------------------------13--|

e|-------------------------------------------13-----------------------------------|
B|-----------------------------------------11-------------------------------------|
G|-10-12-13p12p10--10-12-10-12-13p12p10--10---------------------------------------|
D|---------------11--------------------11-----------------------------------------|
A|--------------------------------------------------------------------------------|
E|--------------------------------------------------------------------------------|

This is my first solo tab.. What a song.. I may not have the ghost notes, bends, and
but this sounds exactly like the solo.. some hammers may be a half step off also. Email 
letsgobosox1804@yahoo.com
comments
print report bad tab
3 comments total.
0 reply
Naumann wrote on March 12 2007, 12:18 am

non accurate, wrong

0 reply
nixfanrdb123 wrote on March 13 2007, 06:07 pm

im sorry.. this hammer: 11h13h14p12p11 should be 11h13h14p13p11.. and this is supposed to be
E--13-------------------------|
B----16-13-14p13--------------|
G-13-------------13p12---------|
D---------------------13p11----|
A--------------------------13--|

i accidentally started the first 13 on the D so everything was one string lower. if anyone wants to correct it I'd be honored.

0 reply
nixfanrdb123 wrote on March 13 2007, 06:10 pm

haha mistake again... 11h13h14p13p11 13-11

I want to post or [tab]
guest
You may want to rate the tab now too:
select rating
Please do not post tabs as comments. Select "correction" instead!