Oops, an error
Loading. Please wait.

Choice Hops And Bottled Self Esteem Tab

version 2
version 2

Solo

Whole song

Interactive

365 views 1 this week
no commentswrite comment
1 2 3 4 5
please rate
add to favorites
launch autoscroll
font size
0
reset
how to read this tab
guitar tuner
Tab Pro tools
  • play this tab
  • loop segment
  • change instrument
  • show fretboard
  • metronome
Autoscroll
slow
fast
+/-
esc
set tempo
stop
Difficulty
intermediate
e|-------------------------------------------------------------|
B|-10-11-13-11-10-------------------------------------11____---|
G|----------------10-12-13-12-------12----13----12-------------|
D|----------------------------10/11----11----11----11----------|
A|-------------------------------------------------------------|
E|-------------------------------------------------------------|


e|--------------9----8------13------13/11----------------------|
B|-9-11-11b13-----11---9-11----13---------13-12----------------|
G|---------------------------------------------13-10-13-10-----|
D|-------------------------------------------------------------|
A|-------------------------------------------------------------|
E|-------------------------------------------------------------|


e|-------------------------------------------------------------|
B|-------------------------------------------------------------|
G|----------------8-10-8----------------10---------------------|
D|-11-10-10-10h11--------11-13-11-10-13----10-13----11---10----|
A|-x--x--10--------------------------------------13----11--10--|
E|-9--8--8-----------------------------------------------------|


e|-------------------------------------------------------------|
B|-------------------------------------------------------------|
G|-13p12----12-13p12-13p12----12-13p12-13p12----12-------------|
D|-------15----------------15----------------15----------------|
A|-------------------------------------------------------------|
E|-------------------------------------------------------------|


e|-------------------------------------------------------------|
B|-------------------------------------------------------------|
G|-13p12----12-13p12-13p12----12-13p12-13p12----12-------------|
D|-------13----------------13----------------13----------------|
A|-------------------------------------------------------------|
E|-------------------------------------------------------------|


e|-------------------------------------------------------------|
B|-------------------------------------------------------------|
G|-13p12----12-13p12-13p12----12-13p12-13p12----12-------------|
D|-------11----------------11----------------11----------------|
A|-------------------------------------------------------------|
E|-------------------------------------------------------------|


e|-------------------------------------------------------------|
B|-13-11-9----9------------------------------------------------|
G|---------12---12-10-8-12-10-8-6-10-8-6-5---------------------|
D|-------------------------------------------------------------|
A|-------------------------------------------------------------|
E|-------------------------------------------------------------|


e|-------------------------------------------------------------|
B|-13----------13----13----------13----13----------------------|
G|----13----13----13----13----13----13----13----13-------------|
D|-------13----------------13----------------13----------------|
A|-------------------------------------------------------------|
E|-------------------------------------------------------------|


e|-------------------------------------------------------------|
B|-16----------16----16----------16----16----------------------|
G|----17----17----17----17----17----17----17----17-------------|
D|-------18----------------18----------------18----------------|
A|-------------------------------------------------------------|
E|-------------------------------------------------------------|



e|-12----------13----------12----------13----------------------|
B|----13----13----13----13----13----13----13----13--9--8--6--5-|
G|-------12----------12----------12----------12-----13-12-10-9-|
D|-------------------------------------------------------------|
A|-------------------------------------------------------------|
E|-------------------------------------------------------------|


e|-----15----15--15b17-15--------------------------------------|
B|-/18----18--------------14----14-----------------------------|
G|---------------------------13----13--------------------------|
D|-------------------------------------------------------------|
A|-------------------------------------------------------------|
E|-------------------------------------------------------------|


e|----13-11~~--------------------------------------------------|
B|-----------13-11~~-------------------------------------------|
G|-------------------13-10-------------------------------------|
D|-------------------------13-10-------------------------------|
A|-8-----------------------------14-13-------------------------|
E|-------------------------------------------------------------|

e|-------------------------------------------------------------|
B|-------------------------------------------------------------|
G|-/10-12-12b13-12-10----10h12-10h12-12b13-12-10---------------|
D|--------------------11-------------------------11------------|
A|-------------------------------------------------------------|
E|-------------------------------------------------------------|


e|--------------------------------------------15-(15)-(15)-(15)|
B|-------------------------------------------------------------|
G|------------------------9h10p9h10p9h10p9h10------------------|
D|10h11p10h11p10h11p10h11--------------------------------------|
A|-------------------------------------------------------------|
E|-------------------------------------------------------------|
comments
We did not receive enough feedback on this tab! Please rate:
print report bad tab
1 2 3 4 5
I want to post or [tab]
guest
You may want to rate the tab now too:
select rating
Please do not post tabs as comments. Select "correction" instead!