Oops, an error
Loading. Please wait.

Choice Hops And Bottled Self Esteem Tab

version 1
version 1

Whole song

Interactive

1,459 views 1 this week
4 commentsread comments
1 2 3 4 5
accurate
x 4
add to favorites
launch autoscroll
font size
0
reset
how to read this tab
guitar tuner
Autoscroll
slow
fast
+/-
esc
set tempo
stop
Help us to improve Ultimate-Guitar.com Take our survey!
×
Difficulty
novice
Tabbed by: Ryan Buchanan
Email: letsgobosox1804@yahoo.com

Tuning: EADGBE (Standard)

This is just the rhythm guitar part. Simplified.

e|----------------------------------------------------------|
B|------------------------------------------------------9b--|
G|---10-------10-------------------10-------------8~-10~----|
D|-10--13---10--13-10--11p10p8---10--13-10-8-10-11----------|
A|-----------------------------11---------------------------|
E|----------------------------------------------------------|

Verse 1: 0:13-0:38
e|-----------------------------------|
B|-----------------------------------|
G|------6---------------6--8--10-13--|
D|-3----6-------(x4)----x--x--x--x---|
A|-3----4-x16-----------4--6--8--11--|
E|-1-x16-----------------------------|
PM......................

0:39-0:44
e|-----------------------------------|
B|-----------------------------------|
G|---5-5--------5-5-----5-5----5-10--|
D|-3-5-5---3-3--5-5---6-5-5--6-5-10--|
A|-3-3-3---3-3--3-3---6-3-3--6-3-8---|
E|-1-------1-1--------4------4-------|

Chorus 1: 0:45-0:58
e|---------------------------------------|
B|---------------------------------------|
G|--------6--------------5-----5-3-------|
D|-3------6--x8--6-------5-x4--5-3--6-5--|
A|-3-x8---4------6--x8---3-----3-1--6-5--|
E|-1-------------4------------------4-3--|

Verse 2: Just 1:01-1:23
e|---------------------------------------------------------|
B|---------------------------------------------------------|
G|--6-------------6--------------6--------------6-8-10-13--|
D|--6-x16--3------6-x16---3------6-x16-3--------X-X-X--X---|
A|--4------3-x16--4-------3-x16--4-----3-x16----4-6-8--11--|
E|---------1--------------1------------1-------------------|
PM..............................................

1:24-1:30
e|-----------------------------------|
B|-----------------------------------|
G|---5-5--------5-5-----5-5----5-10--|
D|-3-5-5---3-3--5-5---6-5-5--6-5-10--|
A|-3-3-3---3-3--3-3---6-3-3--6-3-8---|
E|-1-------1-1--------4------4-------|

Chorus 2: (1:31-1:56
e|-----------------------------------------------------|
B|-----------------------------------------------------|
G|--------6--------------5-----5-3---------------------|
D|-3------6--x8--6-------5-x4--5-3--6-5----------(x2)--|
A|-3-x8---4------6--x8---3-----3-1--6-5----------------|
E|-1-------------4------------------4-3----------------|

Bridge: 1:57-2:41
e|-------------------------------------------------------------------------|
B|-------------------------------------------------------------------------|
G|--------6-----10----5----6-----------------------------------------------|
D|-3------6-x7--10-x3-5-x4-6-x4---6--------(x4)-(3rd and 4th time not PM)--|
A|-3-x7---4-----8-----3----4------6-x4-------------------------------------|
E|-1------------------------------4----------------------------------------|
PM.....................................

(SOLO is on my other tab) 2:41-3:19


Chorus 2: (3:21-3:46)
e|-----------------------------------------------------|
B|-----------------------------------------------------|
G|--------6--------------5-----5-3---------------------|
D|-3------6--x8--6-------5-x4--5-3--6-5----------(x2)--|
A|-3-x8---4------6--x8---3-----3-1--6-5----------------|
E|-1-------------4------------------4-3----------------|

Outro: 3:46-END

e|---------------------------------------------------------------------------------------|
B|---------------------------------------------------------------------------------------|
G|---------------------------------------------------------------------------------------|
D|-3-------------------------------------------------------------------------------------|
A|-3-(till end)--------------------------------------------------------------------------|
E|-1-------------------------------------------------------------------------------------|
pm............


Its not 100% perfect but you definitely get the gist of it for rhythm and thats all that 
matters when you're playing it somewhere.
comments
print report bad tab
4 comments total. Showing first comments.
0 reply
shugo449 874 wrote on March 17 2007, 08:30 am

good

0 reply
shugo449 874 wrote on March 17 2007, 08:31 am

you need the cool lead in the verse

and chorus lead

0 reply
nixfanrdb123 35 wrote on March 18 2007, 05:29 pm

haha yeahh my bad.. if u listen to the song u could prob figure it out in a minute

I want to post or [tab]
guest
You may want to rate the tab now too:
select rating
Please do not post tabs as comments. Select "correction" instead!