Oops, an error
Loading. Please wait.

Choice Hops And Bottled Self Esteem Tab

version 2
version 2

Solo

Whole song

Interactive

6,012 views 3 this week
8 commentsread comments
1 2 3 4 5
excellent!
x 5
add to favorites
launch autoscroll
font size
0
reset
how to read this tab
guitar tuner
Tab Pro tools
  • play this tab
  • loop segment
  • change instrument
  • show fretboard
  • metronome
Autoscroll
slow
fast
+/-
esc
set tempo
stop
Contributor
Difficulty
novice
Intro
E------------------|--------------------|---------------------|----------------|
B------------------|-----4-6-4----------|---------------------|----------------|
G----------8-10-8--|---55-----5-5h6p5-3-|-------8-10-8--------|----------------|
D-10--1010---------|6------------------6|10-1010------10-8-10-|11--13--15--18--|
A-8----------------|4-------------------|8--------------------|----------------|
E------------------|--------------------|---------------------|----------------|


Verse 1 [Last call, lights on...]  x4
E-------------------------|--------------------------|
B-------------------------|-------44-----------------|
G-------------------------|----------55-66-55-33-----|
D----66-55----66-55-88-55-|----66-----------------66-|
A-88-------88-------------|-44-----------------------|
E-------------------------|--------------------------|


Bridge

E---------------------------|------------------|
B---------------------------|------------------|
G---------------------------|------------------|
D-10--------8/10-------8/10-|-6-6-6--5/6-8-----|
A-8--10-10--6/8--10-10-6/8--|-4------3/4-6-----|
E----8--8--------8--8-------|------------------|


Chorus [The healing power of alcohol...]
E------------------|------------------|------------------|------------------|
B------------------|------------------|------------------|------------------|
G------------------|-6-6-6-6-6-6-6-6--|------------------|------------------|
D-3-3-3-3-3-3-3-3--|-4-4-4-4-4-4-4-4--|-6-6-6-6-6-6-6-6--|-5-5-5-5--5-3-----|
A-3-3-3-3-3-3-3-3--|-4-4-4-4-4-4-4-4--|-6-6-6-6-6-6-6-6--|-3-3-3-3--3-1-6-5-|
E-1-1-1-1-1-1-1-1--|------------------|-4-4-4-4-4-4-4-4--|--------------4-3-|


Verse 2 [They say that scent...]  x4
E-------------------------|--------------------------|
B-------------------------|-------44-----------------|
G-------------------------|----------55-66-55-33-----|
D----66-55----66-55-88-55-|----66-----------------66-|
A-88-------88-------------|-44-----------------------|
E-------------------------|--------------------------|


Bridge

E---------------------------|------------------|
B---------------------------|------------------|
G---------------------------|------------------|
D-10--------8/10-------8/10-|-6-6-6--5/6-8-----|
A-8--10-10--6/8--10-10-6/8--|-4------3/4-6-----|
E----8--8--------8--8-------|------------------|


Chorus [The healing power of alcohol...]  x2
E------------------|------------------|------------------|------------------|
B------------------|------------------|------------------|------------------|
G------------------|-6-6-6-6-6-6-6-6--|------------------|------------------|
D-3-3-3-3-3-3-3-3--|-4-4-4-4-4-4-4-4--|-6-6-6-6-6-6-6-6--|-5-5-5-5--5-3-----|
A-3-3-3-3-3-3-3-3--|-4-4-4-4-4-4-4-4--|-6-6-6-6-6-6-6-6--|-3-3-3-3--3-1-6-5-|
E-1-1-1-1-1-1-1-1--|------------------|-4-4-4-4-4-4-4-4--|--------------4-3-|




E------------------|------------------|---------------------|------------------|
B------------------|------------------|---------------------|------------------|
G------------------|-6-6-6--6-6--6-6--|-10-10-10---5-5--5-5-|-6-6-6------------|
D------------------|-6-6-6--6-6--6-6--|-10-10-10---5-5--5-5-|-6-6-6--6-6--6-6--|
A-3-3-3---3-3--3-3-|-4-4-4--4-4--4-4--|--8--8--8---3-3--3-3-|-4-4-4--6-6--6-6--|
E-1-1-1---1-1--1-1-|------------------|---------------------|--------4-4--4-4--|
                                     REPEAT




[Should thank your luck stars...]  x2
E------------------|------------------|---------------------|-----------------|
B------------------|------------------|---------------------|-----------------|
G------------------|-6-6-6--6-6--6-6--|-10-10-10---5-5--5-5-|-6-6-6-----------|
D-3-3-3---3-3--3-3-|-6-6-6--6-6--6-6--|-10-10-10---5-5--5-5-|-6-6-6--6-6--6-6-|
A-3-3-3---3-3--3-3-|-4-4-4--4-4--4-4--|--8--8--8---3-3--3-3-|-4-4-4--6-6--6-6-|
E-1-1-1---1-1--1-1-|------------------|---------------------|--------4-4--4-4-|


I don't have the actual solo tabbed out yet, but here's the rhythm behind the solo
E-----------------|-----------------|-----------------|-----------------|
B-----------------|-----------------|-----------------|-----------------|
G-----------------|-----------------|-6-6-6-6-6-6-6-6-|-6-6-6-6-6-6-6-6-|
D-3-3-3-3-3-3-3-3-|-3-3-3-3-3-3-3-3-|-6-6-6-6-6-6-6-6-|-6-6-6-6-6-6-6-6-|
A-3-3-3-3-3-3-3-3-|-3-3-3-3-3-3-3-3-|-4-4-4-4-4-4-4-4-|-4-4-4-4-4-4-4-4-|
E-1-1-1-1-1-1-1-1-|-1-1-1-1-1-1-1-1-|-----------------|-----------------|

E-----------------|-----------------|-----------------|---------|
B-----------------|-----------------|-----------------|---------|
G-----------------|-----------------|-5-5-5-5-5-5-5-5-|---------|
D-6-6-6-6-6-6-6-6-|-6-6-6-6-6-6-6-6-|-5-5-5-5-5-5-5-5-|-5-3-----|   REPEAT
A-6-6-6-6-6-6-6-6-|-6-6-6-6-6-6-6-6-|-3-3-3-3-3-3-3-3-|-3-1-6-5-|
E-4-4-4-4-4-4-4-4-|-4-4-4-4-4-4-4-4-|-----------------|-----4-3-|


After repeat, continue to play:
E-----------------|-----------------|-----------------|-----------------|
B-----------------|-----------------|-----------------|-----------------|
G-6-6-6-6-6-6-6-6-|-6-6-6-6-6-6-6-6-|-----------------|-----------------|
D-6-6-6-6-6-6-6-6-|-6-6-6-6-6-6-6-6-|-3-3-3-3-3-3-3-3-|-3-3-3-3-3-3-3-3-|
A-4-4-4-4-4-4-4-4-|-4-4-4-4-4-4-4-4-|-3-3-3-3-3-3-3-3-|-3-3-3-3-3-3-3-3-|
E-----------------|-----------------|-1-1-1-1-1-1-1-1-|-1-1-1-1-1-1-1-1-|

E-----------------|-----------------|-----------------|-----------------|
B-----------------|-----------------|-----------------|-----------------|
G-3-3-3-3-3-3-3-3-|-3-3-3-3-3-3-3-3-|-5-5-5-5-5-5-5-5-|-5---------------|
D-3-3-3-3-3-3-3-3-|-3-3-3-3-3-3-3-3-|-5-5-5-5-5-5-5-5-|-5---------------|
A-1-1-1-1-1-1-1-1-|-1-1-1-1-1-1-1-1-|-3-3-3-3-3-3-3-3-|-3---------------|
E-----------------|-----------------|-----------------|-----------------|
[solo ends]

[palm mute, if you haven't been]
E------------------|------------------|
B------------------|------------------|
G------------------|------------------|
D-3-3-3---3-3--3-3-|-3-3-3---3-3--3-3-|
A-3-3-3---3-3--3-3-|-3-3-3---3-3--3-3-|
E-1-1-1---1-1--1-1-|-1-1-1---1-1--1-1-|
comments
print report bad tab
8 comments total. Showing first comments.
0 reply
shugo449 wrote on June 22 2007, 06:35 pm

nice 5*

0 reply
drunkndrumin wrote on October 22 2007, 02:03 am

excelling

0 reply
GNRAGE_2010 wrote on December 12 2007, 10:34 am

tab the solo :)

I want to post or [tab]
guest
You may want to rate the tab now too:
select rating
Please do not post tabs as comments. Select "correction" instead!