Oops, an error
Loading. Please wait.

Dear Tragedy Bass Tab

1,695 views 4 this week
1 commentread comment
1 2 3 4 5
please rate
add to favorites
launch autoscroll
font size
0
reset
guitar tuner
Tab Pro tools
  • play this tab
  • loop segment
  • change instrument
  • show fretboard
  • metronome
×
Best way to learn
"Dear Tragedy"
Autoscroll
slow
fast
+/-
esc
set tempo
stop
Contributor
~ Hold the note

Intro (0:00)
|---------------------------------------------------------|
|---------------------------------------------------------|
|---------------------------------------------------------|
|-9~9~-9-7-57-0~-9-7-57-0~--------------------------------|

Verse (0:14)
|-------------------------------------------------------------|
|-------------------------------------------------------------|
|-------------------------------------------------------------|
|-9(x10)-7(x10)-5(x10)-4(x10)---------------------------------|  x2

Prechorus (0:48)
|---------------------------------------------------------|
|---------------------------------------------------------|
|---------------------------------------------------------|
|-9-9--9-9--9~-7~-542~--9-9-9-9-7-7-----------------------|

Chorus (0:59)
|---------------------------------------------------------|
|---------------------------------------------------------|
|------------------------10-9-7--7-5-7--------------------|
|-0~-0-0-0--0-0--9~-9-9-----------------------------------|

|---------------------------------------------------------|
|---------------------------------------------------------|
|---------------------------------------------------------|
|-2~-2-2-2--2-2--7~-7-7-7--7-7----------------------------|

|------------------------------------------------------------|
|------------------------------------------------------------|
|------------------------------------------------------------|
|-9(x8)-7(x8)-0(x8)-7(x8)------------------------------------|

Verse (1:27)
|------------------------------------------------------------|
|------------------------------------------------------------|
|------------------------------------------------------------|
|-9(x10)-7(x10)-5(x10)-4(x?)---------------------------------|  x2
The first time through on the verse you play four six times and the second time through
you play four eight times.

Chorus (2:00)
|---------------------------------------------------------|
|---------------------------------------------------------|
|------------------------10-9-7--7-5-7--------------------|
|-0~-0-0-0--0-0--9~-9-9-----------------------------------|

|---------------------------------------------------------|
|---------------------------------------------------------|
|---------------------------------------------------------|
|-2~-2-2-2--2-2--7~-7-7-7--7-7----------------------------|

|------------------------------------------------------------|
|------------------------------------------------------------|
|------------------------------------------------------------|
|-9(x8)-7(x8)-0(x8)-7(x8)------------------------------------|

Verse (2:29)
|----------------------------------------------------------|
|----------------------------------------------------------|
|----------------------------------------------------------|
|-9-9-9-9--9-9-9-9--5-5-5-5--5-5-5-5--5--------------------|  x4

Chorus (2:57)
|---------------------------------------------------------|
|---------------------------------------------------------|
|------------------------10-9-7--7-5-7--------------------|
|-0~-0-0-0--0-0--9~-9-9-----------------------------------|

|---------------------------------------------------------|
|---------------------------------------------------------|
|---------------------------------------------------------|
|-2~-2-2-2--2-2--7~-7-7-7--7-7----------------------------|

|------------------------------------------------------------|
|------------------------------------------------------------|
|------------------------------------------------------------|
|-9(x8)-7(x8)-0(x8)-7(x8)------------------------------------|

Bridge (3:33)
|-----------------------------------------------------------|
|-----------------------------------------------------------|
|-----------------------------------------------------------|
|-0(x16)-9(x16)-2(x16)-7(x16)-------------------------------|

|------------------------------------------------------------|
|------------------------------------------------------------|
|------------------------------------------------------------|
|-9(x8)-7(x8)-0(x8)-7(x8)------------------------------------|

Chorus (4:01)
|---------------------------------------------------------|
|---------------------------------------------------------|
|------------------------10-9-7--7-5-7--------------------|
|-0~-0-0-0--0-0--9~-9-9-----------------------------------|

|---------------------------------------------------------|
|---------------------------------------------------------|
|---------------------------------------------------------|
|-2~-2-2-2--2-2--7~-7-7-7--7-7----------------------------|

|-----------------------------------------------------------|
|-----------------------------------------------------------|
|-----------------------------------------------------------|
|-9(x8)-7(x8)-0(x8)-7(x8)--0~~------------------------------|
comments
We did not receive enough feedback on this tab! Please rate:
print report bad tab
1 2 3 4 5
1 comment total.
0 reply
chrisjenks wrote on July 18 2008, 06:56 am

you should state that drop d tuning was used.
apart from that it's a good tab!

I want to post or [tab]
guest
You may want to rate the tab now too:
select rating
Please do not post tabs as comments. Select "correction" instead!