Oops, an error
Loading. Please wait.

Dear Tragedy Tab

5,605 views 6 this week
1 commentread comment
1 2 3 4 5
worth learning
x 4
add to favorites
launch autoscroll
font size
0
reset
how to read this tab
guitar tuner
Autoscroll
slow
fast
+/-
esc
set tempo
stop
Help us to improve Ultimate-Guitar.com Take our survey!
×
Difficulty
Tuning
intermediate
D A D G B E
This is basically the entire main guitar part. the only hard part is trying to sing 
with the verse (if you like to sing along while you play), but you'll get used to it eventually.

intro
E|-----------|--------------|
B|-----------|--------------|
G|-----------|--------------|
D|--9----9---|-9--7--57--0--|
A|--9----9---|-9--7--57--0--|
D|--9----9---|-9--7--57--0--|   x2

Verse
The verse is not perfect but it is relatively close to being correct. the whole verse is 
picking, over and over again.
e|--------------------|----------------|
B|--------------------|----------------|
G|--------7-5-4-------|----------------|
D|------5-------5~~---|----99-99-9~-754|
A|--3-3---------------|----99-99-9~-754|
D|----------------(x8)|----99-99-9~-754| DIRECTLY to the pre-chorus

Pre-chorus
listen to the song for timing on this one.
 (Dear Tragedy... )
e|-----------------------|
B|-----------------------|
G|-----------------------|
D|2~-------(4~)----88875-|
A|2~-------(4~)----88875-|
D|2~-------(4~)----88875-|

Chorus  (you can use whatever type of strumming you like, but I usually play it slowly)
e|----------------------------------|
B|----------------------------------|
G|----------------------------------|
D|-0-0-0-0-5-5-5-5-9-9-9-9-7-7-7-7--|
A|-0-0-0-0-5-5-5-5-9-9-9-9-7-7-7-7--|
D|-0-0-0-0-5-5-5-5-9-9-9-9-7-7-7-7--| x2

Bridge/solo
The only thing that is important in this bridge is what Happens on the G string. so 
everything besides the G is just fiddling around with the notes nearby, but I'll put in what 
usually play.
e|------------------------------------|
B|------------------------------------|
G|------------5/7~------------7/9~/7--|
D|-------5p7h5-----------7p9h7--------|
A|--5p7h5-----------7p9h7-------------|
D|------------------------------------| i think it's only x8

play Prechosus again, and then the ending of the song has the same chords as the chorus.

And that's all there is to know! go have fun with it.
I there are any comments/corrections, email me at ACDCskater12@aol.com

Enjoy.
Suggest correction
What's this?
You can suggest a correction to this tab. Community and Mods will review your correction and vote to approve or reject it.
comments
print report bad tab
1 comment total.
+1 reply
JoAllen 411 wrote on February 4 2009, 10:54 am

the bridge/solo thing should be:

e|-----------------------------------------------------|
B|-----------------*7------------------------*/9---*7--|
G|-----------------------------------------------------|
D|-----4h5p4---4-----------------4h5p4---4-------------|
A|-5h7-------7---7-----------5h7-------7---7-----------|
D|-----------------------------------------------------|

e|--------------------------------------------------------|
B|-----------------*7-------------------------------------|
G|---------------------------------------------7p6p4------|
D|-----4h5p4---4---------------4h5p4---4-------------7p5p4|
A|-5h7-------7---7---------5h7-------7---7----------------|
D|--------------------------------------------------------|

*Notes are played on a third guitar track, but are easy to be incorporated in with lead.

guest
You may want to rate the tab now too:
select rating
Please do not post tabs as comments. Select "correction" instead!