Oops, an error
Loading. Please wait.

Dear Your Holiness Tab

version 2
version 2

Whole song

Interactive

1,207 views 1 this week
no commentswrite comment
1 2 3 4 5
please rate
add to favorites
launch autoscroll
font size
0
reset
how to read this tab
guitar tuner
Tab Pro tools
  • play this tab
  • loop segment
  • change instrument
  • show fretboard
  • metronome
×
Best way to learn
"Dear Your Holiness"
Autoscroll
slow
fast
+/-
esc
set tempo
stop
Contributor
Difficulty
intermediate
Bayside "Dear Your Holiness"

This is my first tab ive submited, i know alot of songs but am to lazy to tab them all, 
sounds right, im prolly bout 90% sure it is, the other tab for this song sounds bad...so 
decided to tab it
Enjoy

Intro

e-------------------------------------|
b-------------------------------------|
g----7----5----x----10----------------|X2
d----7----3----x-----8----------------|
a----5----3----x-----8----------------|
d-------------------------------------|


Verse

e--------------------------------------|
b--------------------------------------|
g----7----5----------------------------|x2
d----7----5----8----7--5--3--2---------|
a----5----3----8----7--5--3--2---------|
d--------------8----7--5--3--2---------|


Pre Chorus

e-----------------------------------------|
b-----------------------------------------|
g----3----5----10----7---------------10---|x2
d----3----5-----8----7----8----10-----8---|
a----1----3-----8----5----8----10-----8---|
d-------------------------8----10---------|


Chorus

e-----------------------------------------|
b-----------------------------------------|
g----3----x----5----x----10---------------|x2
d----3----x----5----x----10---------------|
a----1----x----3----x-----8---------------|
d---------x---------x---------------------|

e------------------------------------------|
b------------------------------------------|
g----7----7---------------7----7-----------|
d----7----7----8----8-----7----7----8----8-|
a----5----5----8----8-----5----5----8----8-|
d--------------8----8---------------8----8-|

Intro plays again


Verse 2 "Were all scared so they....."

e-----------------------------------|
b-----------------------------------|
g----------5----10----10------------|
d----12----5----10----10------------|
a----12----3----8-----8-------------|
d----12-----------------------------|

Then Repeat 1st verse at "Names, i gotta find peace myself"


Repeat Pre Chorus

Repeat Chorus


Bridge

"keep thinkin that.."         "Now i realize, its a waste of time"
e----------------------       e----------------------------------------|
b----------------------       b----------------------------------------|
g---------------10-----x2     g----3----5---------7-------------10-----|
d----8----10----10-----       d----3----5----5----7----8---10-- 10-----|
a----8----10----8------       a----1----3----5----5----8---10----8-----|
d----8----10-----------       d--------------5---------8---10----------|


Chorus

e-----------------------------------------|
b-----------------------------------------|
g----3----x----5----x----10---------------|x2
d----3----x----5----x----10---------------|
a----1----x----3----x-----8---------------|
d---------x---------x---------------------|
                                                 end on..
e------------------------------------------  e--------------|
b------------------------------------------  b--------------|
g----7----7---------------7----7-----------  g----10--------|
d----7----7----8----8-----7----7----8---10-  d----10--------|
a----5----5----8----8-----5----5----8---10-  a-----8--------|
d--------------8----8---------------8---10-  d--------------|


So thats it, im pretty sure its right, sounds good electric or acoustic
Strumming is a little hard but you'll get the hang of it
comments
We did not receive enough feedback on this tab! Please rate:
print report bad tab
1 2 3 4 5
I want to post or [tab]
guest
You may want to rate the tab now too:
select rating
Please do not post tabs as comments. Select "correction" instead!