Oops, an error
Loading. Please wait.

Dear Your Holiness Tab

version 4
version 4

Whole song

Interactive

193 views 1 this week
no commentswrite comment
1 2 3 4 5
3 more votes to show rating
add to favorites
launch autoscroll
font size
0
reset
how to read this tab
guitar tuner
Autoscroll
slow
fast
+/-
esc
set tempo
stop
Help us to improve Ultimate-Guitar.com Take our survey!
×
Author
Difficulty
novice
 Tabbed by:jerrrryyyyyy escatel
Email:therocksmusic@yahoo.com

Tuning: 1/2 step down

i figured it out for my acoustic so theres no leads and timing isnt exact but it
shouldnt really change anything. :)

  INTRO
e|------------------------|----------------------------------------|
B|--5-x-5-----------------|----------------------------------------|
G|--6-x-6---5~------------|---22-----------------------------------|
D|--6-x-6---5~------------|---22----22-----------------------------|
A|--4-x-4---3~------------|---00----22-----------------------------|
E|------------------------|---------00-----------------------------|


  VERSE (slide in to it)
e|-----------------------------------------------------------------|
B|--5--------------------------------------------------------------|
G|--6-------2---5--------------------------------------------------|
D|--6---2---2---2--------------------------------------------------|
A|--4---2---0---3--------------------------------------------------|
E|------0----------------------------------------------------------|
                ^ super duper bayside chord

  Pre-Chorus ( I think its funny...)
e|----------------------------|----------------------------------|
B|----------------------------|----------------------------------|
G|--2--4--9--6----------------|--2--9--4-------------------------|
D|--2--4--9--6----------------|--2--9--4-------------------------|
A|--0--2--7--4----------------|--0--7--2-------------------------|
E|----------------------------|----------------------------------|
  pm...............................


  Chorus (AND I DUNNO HOW THEY..... :) )
e|----------------------------------------------------------------------|
B|----------------------------------------------------------------------|
G|-222-x-44-------------------------------------------------------------|
D|-222-x-44---222--x-22-------------------------------------------------|
A|-000-x-22---222--x-22-------------------------------------------------|
E|------------000--x-00-------------------------------------------------|

  (MAYBE YOU CAN TRICK...)       (maybe if you fool the best...)
e|-----------------------|---------------------------------------|
B|--5--------------------|---------------------------------------|
G|--6---2----------------|----6--2-2-----------------------------|CHORUSB
D|--6---2----------------|----6--2-2-----------------------------|
A|--4---0----------------|----4--0-4-----------------------------|
E|-----------------------|---------------------------------------|


INTRO 1x


  Verse 2 (were all scared) you can jus let em ring
e|---------------------------------------------------------------|
B|---------------------------------------------------------------|
G|---6------2----4-----------------------------------------------|
D|---6------2----4-----------------------------------------------|
A|---4------0----2-----------------------------------------------|
E|---------------------------------------------------------------|


   (ivegotta find..)
e|---------------------------------------------------------------|
B|-5-------------------------------------------------------------|
G|-6-------2---5555----------------------------------------------|
D|-6---2---2---2222----------------------------------------------|
A|-4---2---0---3333----------------------------------------------|
E|-----0---------------------------------------------------------|
 pm........


PRECHORUS
CHORUS

  (arouuuuuuund) u can do the octaves or strum the actual chord
e|-----------------------------------------------------------------|
B|-----------------------------------------------------------------|
G|-6---2-----------------------------------------------------------|
D|-x---x-----------------------------------------------------------|
A|-4---0-----------------------------------------------------------|
E|-----------------------------------------------------------------|


  BRIDGE  ( been thinkin that theres something more)
e|--------?--------------------------------------------------------|
B|--2-----4-----9--------------------------------------------------|
G|--2-----5-----9--------------------------------------------------|
D|--2-----5-----9--------------------------------------------------| 2x
A|--0-----3-----7--------------------------------------------------|
E|-----------------------------------------------------------------|
   (now i realize...)          another penny...
e|-------------------------|-------------------------------------|
B|-------------------------|-------------------------------------|
G|--2---4---5---6----------|--2--4-------------------------------|
D|--2---4---2---6----------|--2--4---2---------------------------|
A|--0---2---3---4----------|--0--2---2---------------------------|
E|-------------------------|---------0---------------------------|


CHORUS
CHORUS
CHORUS B

END ON E5 chord
Suggest correction
Give kudos to tab author, rate the tab!
1 2 3 4 5
comments
print report bad tab
guest
You may want to rate the tab now too:
select rating
Wanna post a correction for this tab? Suggest correction