Oops, an error
Loading. Please wait.

Devotion And Desire Tab

version 2
version 2

Acoustic

Whole song

Interactive

7,782 views 1 this week
2 commentsread comments
1 2 3 4 5
accurate
x 4
add to favorites
launch autoscroll
font size
0
reset
how to read this tab
guitar tuner
Autoscroll
slow
fast
+/-
esc
set tempo
stop
Help us to improve Ultimate-Guitar.com Take our survey!
×
Author
Difficulty
intermediate
Devotion and Desire (Acoustic)
by Bayside

Tabbed By Andrew Adams
ataproxax@yahoo.com

This is an edit of my original tab of "Devotion and Desire"
(Acoustic). I realized there were many flaws, and I am hoping
that this one will turn out to be better.

JACK *Guitar ONE* - Whole-Step Down
ANTHONY *Guitar TWO* - Whole-Ste- Down


[GUITAR ONE - Jack O'Shea]

[INTRO] (1x)
|---------------------------|
|-----65--------------------|
|-------76--7--7--7--------7|
|-75--------7--7--7--7--8--7|
|---87------5--5--5--7--8--4|
|--------------6-----5--6---|


[VERSE] (2x)
|------------------------|
|------------------------|
|-7--7--7-------5/77-777-|
|-7--7--7--7-8--5/77-777-|
|-5--5--5--7-8--3/44-444-|
|----6-----5-6-----------|


[PRE-CHORUS]  (1x)
|------------------|
|------------------|
|-7--7--7--------7-|
|-7--7--7--7--8--7-|
|-5--5--5--7--8--4-|
|----6-----5--6----|
  .  .  .  .  .

[CHORUS ONE] (1x)
|------------------|
|------------------|
|-7----------------|
|-7--------8--7--5-|
|-5--------8--7--5-|
|----------6--5--3-|

|-------------------------------------------|
|-------------------------------------------|
|/7-10-9-10-7-10-9-10--10-9-10/12^-10-9-10--|
|---------------------8---------------------|
|-------------------------------------------|
|-------------------------------------------|

|--------------------------------|
|--------------------------------|
|-10-9-10/12-10-9-7-6-7/9-7-6----|
|8-------------------------------|
|--------------------------------|
|--------------------------------|


[CHORUS TO VERSE]
|---5*-------|
|---5*-------|
|-7-5*-x-----|
|-7-5*-x-----|
|-5-5*-x-----|
|---5*-------|

[VERSE] (2x)
|------------------------|
|------------------------|
|-7--7--7-------5/77-777-|
|-7--7--7--7-8--5/77-777-|
|-5--5--5--7-8--3/44-444-|
|----6-----5-6-----------|

[PRE-CHORUS]  (1x)
|------------------|
|------------------|
|-7--7--7--------7-|
|-7--7--7--7--8--7-|
|-5--5--5--7--8--4-|
|----6-----5--6----|
  .  .  .  .  .

[CHORUS TWO] (1x)
|------------|
|------------|
|-7----------|
|-7--8--7--5-|
|-5--8--7--5-|
|----6--5--3-|

|-------------------------------------------|
|-------------------------------------------|
|/7-10-9-10-7-10-9-10--10-9-10/12^-10-9-10--|
|---------------------8---------------------|
|-------------------------------------------|
|-------------------------------------------|

|--------------------------------|
|--------------------------------|
|-10-9-10/12-10-9-7-6-7/9-7-6----|
|8-------------------------------|
|--------------------------------|
|--------------------------------|

[SOLO] (1x)
|-----------------------------------------------------------------|
|---13^-----------------------------------------------------------|
|-12^--12h14-12-10-9-10---9-----9-10--9---------------------------|
|-----------------------12-10-12----12-10-12----------------------|
|-------------------------------------------8-10-10-8--------8----|
|----------------------------------------------------88-8-10---10-|


|-------------------------------10p0-8p0-6p0-5p0-3p0-6p0-5p0-3p0-|
|-------------------------10-------------------------------------|
|---------------------------9------------------------------------|
|-10/11-10-8--8-10--7-8-7----11----------------------------------|
|-----------10---------------------------------------------------|
|----------------------------------------------------------------|


|-8p0-6p0-10p0-8p0-12p0-10p0-12/13--------------10---------------|
|-------------------------------------------------10-11-13-11-10-|
|----------------------------------12h14-12-10-------------------|
|---------------------------------------------12-----------------|
|----------------------------------------------------------------|
|----------------------------------------------------------------|


|---------------------------------------------------------------|
|-12-------------6-7/9-6-- 10-11-10-----------------------------|
|---11h12h11--7-8-------7--9--10-9------------------------------|
|--------------------------7--8--7------------------------------|
|---------------------------------------------------------------|
|---------------------------------------------------------------|


[BRIDGE] (1x)
|---------------------------------------|
|---------------------------------------|
|-7-------7-------------------6h7-------|
|-7--5h7--7--8h7/5--8--8h7--7-----------|
|-5-------4---------8-------7-----------|
|-------------------6-------5-----------|


|---------------------------------------|
|---------------------------------------|
|-7-------7-------------------6h7-------|
|-7--5h7--7--8h7/5--8--8h7--7-----------|
|-5-------4---------8-------7-----------|
|-------------------6-------5-----------|


|---------------------------------------------|
|---------------------------------------65----|
|-7-------7-------------------------------76-7|
|-7--5h7--7--8h7/5--8--8h7--7-777---75-------7|
|-5-------4---------8-------7-777-----87-----5|
|-------------------6-------5-555-0-----------|


[CHORUS TWO] (1x)
|------------|
|------------|
|-7----------|
|-7--8--7--5-|
|-5--8--7--5-|
|----6--5--3-|

|-------------------------------------------|
|-------------------------------------------|
|/7-10-9-10-7-10-9-10--10-9-10/12^-10-9-10--|
|---------------------8---------------------|
|-------------------------------------------|
|-------------------------------------------|

|--------------------------------------|
|--------------------------------------|
|-10-9-10/12-10-9-7-6-7/9-7-6-7-9/10---|
|8-------------------------------------|
|--------------------------------------|
|--------------------------------------|



[GUITAR TWO - Anthony Raneri]

[INTRO] (1x)
|-----------------------------|
|-----------------------------|
|-------------7--7--7--------7|
|-32---75-----7--7--7--7--8--7|
|---54---87---5--5--5--7--8--4|
|----------------6-----5--6---|


[VERSE] (2x)
|------------------------|
|------------------------|
|-7--7--7-------5/77-777-|
|-7--7--7--7-8--5/77-777-|
|-5--5--5--7-8--3/44-444-|
|----6-----5-6-----------|


[PRE-CHORUS]  (1x)
|------------------|
|------------------|
|-7--7--7--------7-|
|-7--7--7--7--8--7-|
|-5--5--5--7--8--4-|
|----6-----5--6----|
  .  .  .  .  .

[CHORUS ONE] (2x)
|------------------|
|------------------|
|-7--------------7-|
|-7--------8--7--7-|
|-5--------8--7--4-|
|----------6--5----|

[CHORUS TO VERSE]
|-------------|
|-------------|
|-7-7-xxxxxxx-|
|-7-7-xxxxxxx-|
|-5-5-xxxxxxx-|
|-------------|

[VERSE] (2x)
|------------------------|
|------------------------|
|-7--7--7-------5/77-777-|
|-7--7--7--7-8--5/77-777-|
|-5--5--5--7-8--3/44-444-|
|----6-----5-6-----------|

[PRE-CHORUS]  (1x)
|------------------|
|------------------|
|-7--7--7--------7-|
|-7--7--7--7--8--7-|
|-5--5--5--7--8--4-|
|----6-----5--6----|
  .  .  .  .  .

[CHORUS TWO] (2x)
|------------|
|------------|
|-7--------7-|
|-7--8--7--7-|
|-5--8--7--4-|
|----6--5----|

[SOLO] (3x)
|--------------|
|--------------|
|-7------------|
|-7--8--7--5--7|
|-5--8--7--5--7|
|----6--5--3--5|

[BRIDGE] (1x)
|----------------|
|----------------|
|-7---6----------|
|-7---6---8---7--|
|-5---4---8---7--|
|---------6---5--|


|----------------|
|----------------|
|-7---6----------|
|-7---6---8---7--|
|-5---4---8---7--|
|---------6---5--|


|----------------------------------|
|----------------------------------|
|-7---6---------------------------7|
|-7---6---8---7-777---32----75----7|
|-5---4---8---7-777-----54----87--5|
|---------6---5-555----------------|


[CHORUS TWO] (2x)
|--------------|
|--------------|
|-7--------7---|
|-7--8--7--7---|
|-5--8--7--4---|
|----6--5------|
Suggest correction
comments
print report bad tab
2 comments total.
0 reply
ExtremeScott 10 wrote on March 23 2007, 07:50 pm

Whole step or Half Step? Sounded pretty good tuned down half.

0 reply
AndrewAdams 146 wrote on May 9 2007, 02:22 am

It's supposed to be Dd Standard.. :(

I need to work it out still. I'll get back to this soon.

guest
You may want to rate the tab now too:
select rating
Wanna post a correction for this tab? Suggest correction