Oops, an error
Loading. Please wait.

Devotion And Desire Tab

version 1
version 1

Whole song

Interactive

3,984 views 3 this week
2 commentsread comments
1 2 3 4 5
please rate
add to favorites
launch autoscroll
font size
0
reset
how to read this tab
guitar tuner
Tab Pro tools
  • play this tab
  • loop segment
  • change instrument
  • show fretboard
  • metronome
×
Best way to learn
"Devotion And Desire"
Autoscroll
slow
fast
+/-
esc
set tempo
stop
Contributor
Difficulty
Tuning
intermediate
D A D G B E
Bayside-Devotion and Desire Solo
        
Drop D-DADGBe

I recorded this and slowed it down to hear every note played so its pretty
close to being right…sounds really good

E|--------------------------------------------------------------------------|
B|--------------------------------------------------------------------------|
G|--12b-10-9-10----9--------------------------------------------------------|
D|--------------12---10-12-14-15-12-14-10-12-10-----------------------------|
A|----------------------------------------------8-10b11b10-8~---------------|
E|--------------------------------------------------------------------------|


E|--------------------------------------------------------------------------|
B|------------------------------------------10------------------------------|
G|---------------------------------------------9----------------------------|
D|---------------3---3-5b6b5-3---3---/7-8-7------11-------------------------|
A|----0-3-0-3~-5---5-----------5---5----------------------------------------|
E|--5-----------------------------------------------------------------------|

 
E|--10p0-8p0-6p0-5p0-3p0-6p0-5p0-3p0-8p0-6p0-10p0-8p0-12p0-10p0-12b---------|
B|--------------------------------------------------------------------------|
G|--------------------------------------------------------------------------|
D|--------------------------------------------------------------------------|
A|--------------------------------------------------------------------------|
E|--------------------------------------------------------------------------|


D|------------------9-------------------------------------------------------|
B|-------------9h10---10h9---------------10-----10-11-10--------------------|
G|--12b-10-----------------11---------------9----9--9--9--------------------|
D|---------9-9----------------11-5-7-8-7------7--7--7--7--------------------|
A|--------------------------------------------------------------------------|
E|--------------------------------------------------------------------------|

 

comments
We did not receive enough feedback on this tab! Please rate:
print report bad tab
1 2 3 4 5
2 comments total.
0 reply
BeanieM2B wrote on May 15 2006, 08:23 pm

hey thanks for this its helped me a lot, although theres a couple of wrong notes a few bars from the end but other than that its pretty good.

thanks dude

0 reply
Cooterthecat wrote on May 27 2006, 12:58 am

|----------------------------------------------------------|
|----13b---------------------------------------------------|
|-12b----12b-12-10-9-10-7-9-5-7-9-10-7-9-5-7--5------------|
|-----------------------------------------------/3-5-5b-5-3|
|----------------------------------------------------------|
|----------------------------------------------------------|

I want to post or [tab]
guest
You may want to rate the tab now too:
select rating
Please do not post tabs as comments. Select "correction" instead!