Oops, an error
Loading. Please wait.

Devotion And Desire Tab

version 3
version 3

Whole song

Interactive

3,022 views 1 this week
no commentswrite comment
1 2 3 4 5
1 last vote to show rating
add to favorites
launch autoscroll
font size
0
reset
how to read this tab
guitar tuner
Autoscroll
slow
fast
+/-
esc
set tempo
stop
Help us to improve Ultimate-Guitar.com Take our survey!
×
Author
Difficulty
Tuning
intermediate
D A D G B E
hey this is my version of the solo from devotion and desire
its a pretty easy solo when uve got it and its fun to play
hope u like it plz rate and all comments are welcome :)

its in drop D tuning

|-----------------------------------------------------------|
|--------13-------------------------------------------------|
|--12b13----12-14p12-10-9-10----9-------9-10----9-----------|
|----------------------------12---10-12------12---10-12-10--|
|-----------------------------------------------------------|
|-----------------------------------------------------------|

|-----------------------------------------------------------5----|
|------------------------------------------------------------5---|
|-------------------------------------------------------------6--|
|---------------------------------3---3-5b6r5-3---3-5/7-8-7------|
|-8-10-10b11r10-88-3-5-3-5~---3-5---5-----------5----------------|
|----------------------------------------------------------------|

|--10p0-8p0-6p0-5p0-3p0-6p0-5p0-3p0-8p0-6p0-10p0-8p0-12p0-10p0-12b13--|
|---------------------------------------------------------------------|
|---------------------------------------------------------------------|
|---------------------------------------------------------------------|
|---------------------------------------------------------------------|
|---------------------------------------------------------------------|

|----------------10-------------------------------------------------|
|-------------------------15-13---------------------------10-11-10--|
|--12b13r12p10------12h14-------14-12-------------9-------9--9--9---|
|--------------12---------------------11------7h10---10-7-----------|
|-----------------------------------------5h8-----------------------|
|-------------------------------------------------------------------|


cheers for checking it out :)
Suggest correction
Give kudos to tab author, rate the tab!
1 2 3 4 5
comments
print report bad tab
guest
You may want to rate the tab now too:
select rating
Wanna post a correction for this tab? Suggest correction